Default - Deny Chords & Tabs

 

Deny Chords & Tabs

Default Chords & Tabs

Version: 1 Type: Bass Tab 0 ratings
1 star 2 stars 3 stars 4 stars 5 stars
comments

Deny Bass Tab

~=Hold
\=Slide Down


Intro 1:
G: ----------------------
D: ----------------------
A: ----------------------
E: 0-0~10-10-10\3-3-5-5~5

Intro 2:
G: -------------------  Just giutar, then on the E string 3~
D: -------------------
A: --------3-3~3-3-3~3
E: 0-0~3-3~-----------
[ Tab from: http://www.guitartabs.cc/tabs/d/default/deny_btab.html ]
Chorus:
G: ----------------  Repeat  
D: ----------------   
A: 10-8-5~5-3------
E: -----------3-0~0

Verse:
G: -------------  Repeat
D: -------------
A: ------8-7-3~3
E: 00-00--------

Bridge:
G: ----------
D: ----------
A: ----------
E: 0~10~\3~5~

Order:
Intro 1 (1)
Intro 2 (1)
Chorus (2)
Verse (4)
Chorus (4)
Verse (4)
Chorus (4)
Bridge (4)
Chorus (4)
Verse (4)
Comments