Default - Deny Acoustic Chords & Tabs

 

Deny Acoustic Chords & Tabs

Default Chords & Tabs

Version: 1 Type: Tab 0 ratings
1 star 2 stars 3 stars 4 stars 5 stars
comments

Deny Acoustic Tab

Artist    : Default
song      : Deny (acoustic)
tabbed by : christian strowitzki
tuning    : dropped d


riff 1    
E------3---1-------0---1-0---------------------------------
B----------------------------------------------------------
G--------------------------------2--0-------4---5-4--------
D----------------------------------------------------------
A----------------3---3-----3-------------------------------
D----0---0-----0-------------0-3---3----0-5---5-----5-0----


riff 2
E------3---1------------------0---1-0-------0---1-0---------
B-----------------------------------------------------------
G-----------------2---0-------------------------------------
D-----------------------------------------------------------
A---------------------------3---3-----3---3---3------3------
D----0---0----0-3---3-----3----------------------------0----

[ Tab from: http://www.guitartabs.cc/tabs/d/default/deny_acoustic_tab.html ]
riff 3
E---------------------------------          ---------
B----1--1-1-1--1/3--3-3-3--3-3----          ---------
G----0--0-0-0--0/0--0-0-0--0-0---- 3x, then ----5----
D----2--2-2-2--2/4--4-4-4--4-4----          ----5----
A----3--3-3-3--3/5--5-5-5--5-5----          ----3----
D---------------------------------          ---------


riff4
E---------------------0----
B----7--5----------5--3----
G----6--4--7----5--4--2----
D----5--3--7----5--3--0----
A----5--3--5----3--3--0----
D---------------------0----


riff5
E----0-0-----0-0--------------------------
G----3-3-----3-3-------5-5----------------
G----2-2-----2-2-------4-4---5---5-5-5----
D----0-0-----0-0-------3-3---5---5-5-5----
A----0-0-----0-0-------3-3---3---3-3-3----
D----0-0-----0-0--------------------------



order
-----

riff 1    2x
riff 2    4x
riff 3    1x
riff 4    2x
riff 5    4x
riff 4    4x
riff 5    4x
riff 4    4x
riff 1    4x
riff 4    4x
riff 5    4x
Comments