Default - Count On Me Chords & Tabs

 

Count On Me Chords & Tabs

Default Chords & Tabs

Version: 1 Type: Tab 0 ratings
1 star 2 stars 3 stars 4 stars 5 stars
comments

Count On Me Tab

   
-------------------------------------------------------------------------------
			     Default - Count On Me
-------------------------------------------------------------------------------
Tabbed by: Greg Haberek
Email: ghaberek@gmail.com

I'm not 100% sure on this. It's one of my first tabs,
but it does sound pretty close. Corrections welcome.
Full lyrics are at the very end.

Tuning: Standard (eBGDAE)

Intro
    D#5                            C#5
e|---------------------------------------------------------------------------|
B|---------------------------------------------------------------------------|
G|--8-8---6-8-6--------------------6-6---4-6-4-------------------------------|
D|--8-8-8-------8-6^---------------6-6-6-------6-4^--------------------------| x2
A|--6-6----------------------------4-4---------------------------------------|
E|---------------------------------------------------------------------------|

    D#5                            C#5
e|---------------------------------------------------------------------------|
B|---------------------------------------------------------------------------|
G|--8-8-x-8*----8------------------6-6-x-6*----6-----------------------------|
D|--8-8-x-8*----8------------------6-6-x-6*----6-----------------------------| *let ring
A|--6-6-x-6*----6------------------4-4-x-4*----4-----------------------------|
E|---------------------------------------------------------------------------|


Verse 1
    D#5                            C#5
e|---------------------------------------------------------------------------|
B|---------------------------------------------------------------------------|
G|--8-8---6-8-6--------------------6-6---4-6-4-------------------------------|
D|--8-8-8-------8-6^---------------6-6-6-------6-4^--------------------------|
A|--6-6----------------------------4-4---------------------------------------|
E|---------------------------------------------------------------------------|
    I know that life...            I've seen exactly...
    You got to thinkin...          You started sinkin...

    D#5                            C#5
e|---------------------------------------------------------------------------|
B|---------------------------------------------------------------------------|
G|--8-8-x-8*----8------------------6-6-x-6*----6-----------------------------|
D|--8-8-x-8*----8------------------6-6-x-6*----6-----------------------------| *let ring
A|--6-6-x-6*----6------------------4-4-x-4*----4-----------------------------|
E|---------------------------------------------------------------------------|
    Thrown you around...           upside down...
    It may be tough...             get back up...

Pre-chorus
    C5                             A#5
e|---------------------------------------------------------------------------|
B|---------------------------------------------------------------------------|
G|--5-5-5-5-5-5-5-5----------------3-3-3-3-3-3-3-3---------------------------|
D|--5-5-5-5-5-5-5-5----------------3-3-3-3-3-3-3-3---------------------------|
A|--3-3-3-3-3-3-5-3----------------1-1-1-1-1-1-1-1---------------------------|
E|---------------------------------------------------------------------------|
    know that life...              I'm here for you...
    count on me...                 Carry you til you...
[ Tab from: http://www.guitartabs.cc/tabs/d/default/count_on_me_tab.html ]
Chorus
    C5                             A#5
e|---------------------------------------------------------------------------|
B|---------------------------------------------------------------------------|
G|--5-5-x-5*----5------------------3-3-x-3*----3-----------------------------|
D|--5-5-x-5*----5------------------3-3-x-3*----3-----------------------------| *let ring
A|--3-3-x-3*----5------------------1-1-x-1*----1-----------------------------|
E|---------------------------------------------------------------------------|
    Anytime you need...            Somebody strong...
    Well you can...                To hold you till...
    And every time...              Well you can hide...
    And you can...                 To hold you till...

Verse 2
    D#5                            C#5
e|---------------------------------------------------------------------------|
B|---------------------------------------------------------------------------|
G|--8-8---6-8-6--------------------6-6---4-6-4-------------------------------|
D|--8-8-8-------8-6~---------------6-6-6-------6-4~--------------------------|
A|--6-6----------------------------4-4---------------------------------------|
E|---------------------------------------------------------------------------|
    I wonder why...                I'd love to be...
    I see a silver...              I'll pick you up...

    D#5                            C#5
e|---------------------------------------------------------------------------|
B|---------------------------------------------------------------------------|
G|--8-8-x-8*----8------------------6-6-x-6*----6-----------------------------|
D|--8-8-x-8*----8------------------6-6-x-6*----6-----------------------------| *let ring
A|--6-6-x-6*----6------------------4-4-x-4*----4-----------------------------|
E|---------------------------------------------------------------------------|
    Your darkest times...          be the light...
    take my hand...                help you stand...

Pre-chorus

Chorus

Bridge
    C5                             A#5
e|---------------------------------------------------------------------------|
B|---------------------------------------------------------------------------|
G|--5-5-x-5*----5------------------3-3-x-3*----3-----------------------------|
D|--5-5-x-5*----5------------------3-3-x-3*----3-----------------------------| *let ring
A|--3-3-x-3*----5------------------1-1-x-1*----1-----------------------------|
E|---------------------------------------------------------------------------|
    Gone so you...                 Seems so long...
    Keep on counting...            To carry you...

Solo
(sorry, no solo - follow chorus rhythm)

Pre-chorus

Chorus

Outro
    C5                             A#5
e|---------------------------------------------------------------------------|
B|---------------------------------------------------------------------------|
G|--5-5-x-5*----5------------------3-3-x-3*----3-----------------------------|
D|--5-5-x-5*----5------------------3-3-x-3*----3-----------------------------| *let ring
A|--3-3-x-3*----5------------------1-1-x-1*----1-----------------------------|
E|---------------------------------------------------------------------------|
    Remember life ain't...         I'm here for you...
    That you can count...          To hold you till...
    Remember life ain't...         I'm here for you...
    That you can coun't...         To hold you till...


| /  slide up
| \  slide down
| h  hammer-on
| p  pull-off
| ~  vibrato
| +  harmonic
| x  Mute note
===============================================================================
Comments