Def Leppard - Two Steps Behind Chords & Tabs

 

Two Steps Behind Chords & Tabs

Def Leppard Chords & Tabs

Version: 6 Type: Tab 0 ratings
1 star 2 stars 3 stars 4 stars 5 stars
comments

Two Steps Behind Tab

   
two steps behind - def leppard

standard tuning

intro

e------------9-----------7----5-5----|
b---5/10-10--10-10--10\8-8-8--7-7----|
g---6/9--9--------------------7------| (2x)
d------------------------------------|
a------------------------------------|
e------------------------------------|

verse 1

	a-d-g-d 2x

	a-d-e-d 2x


refrain

	f#m-d-g-e


chorus

	a-d-g-d 2x

	a-d-e-g-d

di ko alam tawag sa part na to after ng chorus

	a-d-g-d 2x

verse 2

	repeat verse chords

repeat refrain

repeat chorus then do intro

solo (while guitar1 do verse chords)

e------------------------------------------------|
b------------------------------------------------|
g---7h9-99--9999\7-77-7--------------------------|
d-----------------------7h9-99-9-7h9-9/11--------|
a------------------------------------------------|
e------------------------------------------------|
[ Tab from: http://www.guitartabs.cc/tabs/d/def_leppard/two_steps_behind_tab_ver_6.html ]
e---------12-12-10-10-10-10\9--9--9--9--9/10-10-10-10-10-10-10--------|
b---12h14-14-14-12-12-12-12\10-10-10-10-10---10-10-12-12-12-12-10-10--|
g--------------------------------------------------------------11-11--|
d---------------------------------------------------------------------|
a---------------------------------------------------------------------|
e---------------------------------------------------------------------|


e------------------------------------------------------------------------|
b---13b--13b--13b--1010-10------------------4/5-5-5-5\3-3-3-3\2-2-2-2----|
g-------------------------------------------5/6-6-6-6\4-4-4-4\2-2-2-2----|
d------------------------------------------------------------------------|
a---------------------------------2p0------------------------------------|
e--------------------------0-000-----------------------------------------|


e------------------------------------------------|
b--------------------10--10------10------12/14---|
g---777h9-99-11-9-11--------9-11----11-9---------|
d------------------------------------------------|
a------------------------------------------------|
e------------------------------------------------|

repeat refrain

repeat chorus
Comments