Def Leppard - Two Steps Behind Chords & Tabs

 

Two Steps Behind Chords & Tabs

Def Leppard Chords & Tabs

Version: 3 Type: Tab 0 ratings
1 star 2 stars 3 stars 4 stars 5 stars
comments

Two Steps Behind Tab

   
#-----------------------------PLEASE NOTE-------------------------------------#
#This OLGA file is the author's own work and represents their interpretation  #
#of the song. You may only use this file for private study, scholarship, or   #
#research. Remember to view this file in Courier, or some other monospaced    #
#font. See http://www.olga.net/faq/ for more information.                     #
#-----------------------------------------------------------------------------#

From: "Sharaf Hameed" 
Subject: d/def_leppard/two_steps_behind.tab
Date: Mon, 06 Dec 1999 10:23:45 PST


TWO STEPS BEHIND  - DEF LEPPARD (Retroactive)
-------------------------------

Tabbed by Sharaf Hameed



INTRO:



E |---5----5---5-5-5/9--|-9-------------------|-7----5---5-5-5--|
B |-5-5----5---7-7------|-10----10---10-10\8--|-8----7---7-7-7--|
G |-6-7----7---7-7------|-9-------------------|-7----7---7-7-7--|
D |-7-------------------|---------------------|-----------------|
A |---------------------|---------------------|-----------------|
E |---------------------|---------------------|-----------------|



[ Tab from: http://www.guitartabs.cc/tabs/d/def_leppard/two_steps_behind_tab_ver_3.html ]
E |---5----5-----5-5-5/9-|-9-------------------|-7----5---5-5-5-|
B |-5-5----5-----5-5-----|-10----10---10-10\8--|-8----7---7-7-7-|
G |-6-6----6h7---7-7-----|-9-------------------|-7----7---7-7-7-|
D |-7--------------------|---------------------|----------------|
A |----------------------|---------------------|----------------|
E |----------------------|---------------------|----------------|


then play the chords as below (as submitted by Scott Hagberg)...


Verse:

	      [A]  [D]        [G]       [D]
	      [A]  [D]        [G]       [D]
		[A]	 [D]           [E]   [D]
		   [A]          [D]        [E]    [D]

Chorus:

  [F#m]                           [D]
	    [G]   		   [E]
  [A]		     [D]     [E]		[D]
  [A]                [D]     [E]        [D]
                [A]          [D]             [E]     [G]
                 [D]

	[A]  [D]  [G]  [D] (x2)

Verse:

	          [A]  [D]           [G]      [D]
	              [A]        [D]                [G]          [D]
	              [A]          [D]              [E]   [D]
	          [A]         [D]        [E]       [D]

Chorus

Solo over verse

Chorus

suggestions always welcome
enjoy!! :)
Comments