Def Leppard - Two Steps Behind Chords & Tabs

 

Two Steps Behind Chords & Tabs

Def Leppard Chords & Tabs

Version: 2 Type: Tab 0 ratings
1 star 2 stars 3 stars 4 stars 5 stars
comments

Two Steps Behind Tab

   
Song: 2 steps behind (Retroactive)
      --------------
by: Def Leppard
tabbed by: Keiju (bunga_anciano@yahoo.com)

...Normal Tune...
...This file is better read with Courier (size 10)...

Here´s my idea of a total guitar tab of this song. I´ve used previous tabs of the song, modified them, organized them and put all in a only tab. This tab was requested by Justin Minnick.

The solo is based on the simpler solo tabbed by "unknown" (burrowpimp13@yahoo.com)
The Chords were originally tabbed by Scott Hagberg (hagbergs@stolaf.edu)
And Sharaf Hameed gave me the idea about the Intro
I want to thank all of them.

By the way the original song uses violin backup... it isn´t tabbed, of course :)
The Violin starts playing in the first verse very light but it´s better heard after the first chorus.

--- Legend: ---

/= Slide up
\= Slide down
d= downstroke
u= upstroke

--- Chords: ---

    A d G E  F#m
E |-0-3-3----2------------------------------------------|
B |-2-2-0-0--2------------------------------------------|
G |-2-3-0-1--2------------------------------------------|
D |-2-0-0-2--4------------------------------------------|
A |-0-----2--4------------------------------------------|
E |-------0--2------------------------------------------|

--- The TAB: ---

Intro =  2 times

Guitar 1
      d d d  d u   d u d  d  d u   dud d du  dud d du
E |---5-5-5--5-5---9-9-9--9--9-9---777-7-77--555-5-55---|
B |---5-5-5--5-5---101010-10-1010--888-8-88--777-7-77---|
G |---6-6-6--6^7---9-9-9--9--9-9---777-7-77--777-7-77--·|
D |---7-7-7--------------------------------------------·|
A |-----------------------------------------------------|
E |-----------------------------------------------------|

Guitar 2

E |-^/5---5------5/9------9------9/7---7---7/5---5------|
B |-----------------------------------------------------|
G |----------------------------------------------------·|
D |----------------------------------------------------·|
A |-----------------------------------------------------|
E |-----------------------------------------------------|

- Verse:
	     [A]  [d]         [G]       [d] 
	Walk away,     if you want to.
	     [A]  [d]         [G]       [d] 
	It's okay      if you need to.
		[A]	 [d]           [E]   [d]
	You can run, but you can never hide
		   [A]          [d]        [E]   [d]
	From the shadow that's creepin up beside you.
[ Tab from: http://www.guitartabs.cc/tabs/d/def_leppard/two_steps_behind_tab_ver_2.html ]
- Chorus:
  [F#m]                           [d]	
	There's a magic runnin' through your soul
	    [G]   		   [E]  [Silence]
	But you can't have it all.     (What ever you do)
  [A]		     [d]     [E]		[d] 
	I'll be two steps behind you     (Where ever you go)
  [A]                [d]     [E]        [d]
	And I'll be there to remind you
                [A]          [D]             [E]     [G] [Bass Drops and gets up again]
	That it only takes a minute of your precious time
                 [d]  [Silence]
	To turn around, I'll be two steps behind.

	[A]  [d]  [G]  [d] (x2)

- 2nd Verse (play a bit softer):       
	          [A]  [d]           [G]      [d] 
	Take the time      to think about it.
	              [A]        [d]                [G]          [d]
	Just walk the line, you know you just can't fight it.
	              [A]          [d]              [E]   [d]
	Take a look around, you'll see what you can find
	          [A]         [d]        [E]       [d]
	Like the fire that's burnin' up inside me.

- Chorus

- Intro (again)

- Solo:

Other Guitar plays A D G D (4 times)

E-----------------------------------------   
B-----------------------------------------   
G--7/9-99-999-9\7/9-9--2/4-4-4-444-2/6-6-- 
D----------------------------------------- 
A----------------------------------------- 
E-----------------------------------------
                                                                         
E--9/11-11-11-9-9-9---9\7-7-7--7/9--9--9--9-9-9---9\7-7-5--
B-10/11-11-11-101010-10\8-8-8--8/10-10-10-101010-10\8-8-7--                                        
G----------------------------------------------------------
D---------------------------------------------------------- 
A----------------------------------------------------------
E----------------------------------------------------------

E-5/9--/9--9\5-5-5------------ 
B-----------------------------                                               
G-----------------------------                                            
D-----------------------------            
A------------------------0p2--         
E-------------------0-00------

E-----------------------------------------------------------
B--4/5-5-5-555-5\3-3-3--3\2----------------------12///////--
G--5/6-6-6-666-6\4-4-4--4\2--7/9-9-9-999-9/13-13------------
D-----------------------------------------------------------
A-----------------------------------------------------------
E-----------------------------------------------------------

- Chorus

- Outro:

	At the end of the final Chorus when singing "I'll be two steps behind" in place of a Silence 1 guitar keeps playing really softly: [E]

(2nd guitar louder)                             [A]
(soft guitar)	[A]  [d]       [G]     [d]      [A] 
	                  Yeah Baby! 2 steps behind

		[d]     [G]      [d]     [A]
		    Oh Sugar! 2 steps behind

END

Keiju tabbed this (bunga_anciano@yahoo.com) mail me for any (ANY) thing
u want :)

Comments