Def Leppard - Two Steps Behind Chords & Tabs

 

Two Steps Behind Chords & Tabs

Def Leppard Chords & Tabs

Version: 1 Type: Bass Tab 0 ratings
1 star 2 stars 3 stars 4 stars 5 stars
comments

Two Steps Behind Bass Tab

two steps behind
def leppard
tabbed by saturns_bassman
                       /or\-slide up or down  *-hold note
intro:                ^-slightly hard strum   h-hammeron   p-pull off
g|-----------------------------||
d|-----------------------------|| x2
a|--0--0-5--5/10--10\--5-5\----||
e|-----------------------------||

verse:
g|--------------------------|  |--------------------------|  |-------||
d|--------------5555--------|x2|--------------------------|x2|-------||
a|--0-0-000-55-------55555--|  |--0-0-000-55-------55555--|  |5--7\--||
e|--------------------------|  |--------------0000--------|  |-------||
          ^riff 1^
pre-chorus:
g|------------------------------------------||
d|----------------12--12--------------------||
a|-----------55/12--12--12------------------||
e|-22222222----------------33333333-2-000^--||
[ Tab from: http://www.guitartabs.cc/tabs/d/def_leppard/two_steps_behind_btab.html ]
chorus:                       fill before chorus is over
g|-------------------------|  |-----------------------||
d|-------------------------|x2|---------------7-------||
a|--0-0-000-55------55555--|  |--10-9-7-5-7h9-----5*--||
e|-------------0000--------|  |-----------------------||

play riff 1
then both verse parts
then pre-chorus
then chorus
then intro
then solo(same as chorus)
then pre-chorus
then chorus

then outro:
g|-------------------------------------||
d|-------------------------7-----------||
a|--0--0-5--5/10--10\--7h9---9p7\5\-0*-||
e|-------------------------------------||

ok now where you see the open E's and then open G's you can also play the lower/higher
octave part too it just sounds better with the parts i have and listen to the cd i
really think this is one of the closest tabs ive done so please rate if you get a
chance to...enjoy

Comments