Def Leppard - Tear It Down Chords & Tabs

 

Tear It Down Chords & Tabs

Def Leppard Chords & Tabs

Version: 1 Type: Tab 0 ratings
1 star 2 stars 3 stars 4 stars 5 stars
comments

Tear It Down Tab

Tabbed by: John Ogden
Artist: Def Leppard
Album: Adrenalize

I don't know if its standard or other tuning 
because my tuner broke.  Hope you like it.

Intro
e----------------------
B--------3-------------
G------0-2-------------
D-2----0-0-------------
A-0--------------------
E----------------------

Verse
e----------------------------
B------------3---------------
G----------0-2---------------
D-2--------0-0---------------
A-0--------------------------
E----------------------------
[ Tab from: http://www.guitartabs.cc/tabs/d/def_leppard/tear_it_down_tab.html ]
Pre-chorus    This will somtimes be the verse also.
e---------------------------------------------------------------------
B----------------------------------3-----------3----3-----------3-----
G-----------------------------0----2-----------2----2-----------2-0---
D-2----------2----2-----------0----0-----------0----0-----------0-0---
A-0-0x-0x-0x-0-0x-0--0x-0x-0x---0x----0x-0x-0x---0x----0x-0x-0x-------
E---------------------------------------------------------------------

e--------------------------------------
B--------------------------------------
G---------2------2------------2--------
D-------2-0-2----0-2--------2-0----2---
A---2---0---0-0x---0----2---0------0---
E---0-------------------0--------------

Chorus
e--------------
B--------3-----
G------0-2-----
D-2----0-0-----
A-0------------
E--------------
Comments