Def Leppard - Stand Up Chords & Tabs

 

Stand Up Chords & Tabs

Def Leppard Chords & Tabs

Version: 1 Type: Bass Tab 0 ratings
1 star 2 stars 3 stars 4 stars 5 stars
comments

Stand Up Bass Tab

Def Leppard Bass Tab Tabbed by saturns_bassman
Stand Up(Kick Love Into Motion)
 
intro:
x1
                                                      *=let it ring
g|------------------------------------------------------------||
d|------------------------------------------------------------||
a|-4444444------------------------44444444----------------0-0*||
e|--------555555550000000055555555--------555555550000000-----||

verse:
x1(every time verse occurs)
start on "Now......" on second verse start on "Game......."                                               
g|--------------------------------------------------------------------------
d|--------------------------------------------------------------------------
a|-4444444------------------------44444444----------------22222-2-244444444-
e|--------555555550000000055555555--------5555555500000000-------4----------
                                                           (go to next line)
g|--------------------------------------------------------||
d|--------------------------------------------------------||
a|--------------------------2-4444444---------------2*-222||
e|-555555550000000055555-545---------555555500000000------||

chorus:
x1(every time chorus occurs)
[ Tab from: http://www.guitartabs.cc/tabs/d/def_leppard/stand_up_btab.html ]
g|-----------------------------------------------------------------------||
d|-----------------------------------------------------------------------||
a|-4442222---222-2-2-4442222-------2444-2222---222-2-2-444-2222--------2*||
e|--------000-----4---------0005-55---------000-----4----------000-5-55--||

play this little riff before solo
x3
"Yeah.."
g|--------------------||
d|--------------------||
a|-------7------7-----||
e|----0*--7*---7---5*-||

play this during solo:
x1
                                                        ^=play note short
g|-----------------------------------------------------------------||
d|-----------------------------------------------------------------||      
a|-444444422222222----2222--------2-444444422222222----2222------2^||
e|----------------0000----55555555-----------------0000----555555--||

interlude:
x1
"Little bye little..."
g|-----||---------||----------------||
d|-----||-rest 20-||----------------||
a|-4*--||-measures||-----2*-2-2--222||
e|-----||---------||-0^-------------||

out chorus:
xas much as possible

g|----------------------------------||
d|----------------------------------||                                     
a|-4442222---222-2-2-4442222-------2||
e|--------000-----4---------0005-55-|| (fade out)


Song Structure:
intro x1
verse x1 
chorus x1
versex1 chorus x1
little riff before solo x1
solo part x1 
interlude x1 
out chorus xas much as possible 
(fade out)
Comments