Def Leppard - Promises Chords & Tabs

 

Promises Chords & Tabs

Def Leppard Chords & Tabs

Version: 5 Type: Tab 0 ratings
1 star 2 stars 3 stars 4 stars 5 stars
comments

Promises Tab

   
-------------------------------------------------------------------------------
			     PROMISES - Def Leppard
-------------------------------------------------------------------------------

Tabbed by: Jesse Benedick
Email: cartguysam@aol.com

Tuning: Standard
[ Tab from: http://www.guitartabs.cc/tabs/d/def_leppard/promises_tab_ver_5.html ]
e|---------------------------------------------------------------------------|
B|-10-10-9-9-9--99--9-10-12-12-12--10-10-9-9-9-------------------------------|
G|-9--9--9-9-9--99--9-9--9--9--9---9--9--9-9-9------------9-9-9-9-9-9--------|
D|--------------------------------------------------------9-9-9-9-9-9--------|
A|----------------------------------------------------77--7-7-7-7-7-7--------|
E|---------------------------------------------------------------------------|
                                                      pm.
e|---------------------------------------------------------12----14----16~---|
B|-----------------------------12---------------------12-12---12----12-------|
G|--11b(12)r11--11b(12)r11--11b--(12)r11--9~--7~--6~-------------------------|
D|---------------------------------------------------------------------------|
A|---------------------------------------------------------------------------|
E|---------------------------------------------------------------------------|

e|---------------------------------------------------------------------------|
B|--17-17-16-16-14-14-------17-17-16-16-14-14-------17-17-16-16-14-14--------|
G|--------------------16-16-------------------16-16-------------------16-16--|
D|---------------------------------------------------------------------------|
A|---------------------------------------------------------------------------|
E|---------------------------------------------------------------------------|

e|-------------16b(17)r16p14--16/17-16~--17-17/21~-21/24-24~-----------------|
B|----14-16-17---------------------------------------------------------------|
G|-16------------------------------------------------------------------------|
D|---------------------------------------------------------------------------|
A|---------------------------------------------------------------------------|
E|---------------------------------------------------------------------------|



| /  slide up
| \  slide down
| h  hammer-on
| p  pull-off
| ~  vibrato
| +  harmonic
| x  Mute note

===============================================================================
Comments