Def Leppard - Photograph Chords & Tabs

 

Photograph Chords & Tabs

Def Leppard Chords & Tabs

Version: 2 Type: Tab 0 ratings
1 star 2 stars 3 stars 4 stars 5 stars
comments

Photograph Tab

Tune down 1 3/4 step
played with distortion throughout
Album:Pyromania/Vault

Intro:
E-----------------------------------------------------------
B---------------9-9-8-8-8---9-9---7-------------------------
G---------------9-9-9-9-9---7-7---7-%without open "A"string
D---------------------------0-0---0-------------------------
A--0--(let ring)--------------------------------------------
E-----------------------------------------------------------

Verse:
E-----------------------------------------------------------
B----9-9-8-8-8--9-9--7-7-7----------------------------------
G----9-9-9-9-9--7-7--7-7-7--%7 times then comes this------- 
D---------------0-0--0-0-0----------------------------------
A-----------------------------------------------------------
E-----------------------------------------------------------

E-----------------------------------------------------------
B-----------------------------------------------------------
G--2--\--9-9-9----(--9-9-8-8-8---9-9--7-7-7-%3 times)-------
D--2--\--7-7-7----(--9-9-9-9-9---7-7--7-7-7---------)-------
A--0--------------(----------------0-0--0-0-0-------)-------
E-----------------------------------------------------------

Bridge:
E------------------------------(-3-3-3---3-3-3-3------------
B------------------------------(-3-3-3---3-3-3-3------------
G-9-/-4-4-/-2-2---9-9-9-9------(-0-0-0---0-0-0-0------------
D-9-/-4-4-/-2-2---7-7-7-7------(-x-x-x---x-x-x-x------------
A-7-/-2-2-/-0-0---0-0-0-0------(-3-3-3---3-2-2-2------------
E------------------------------(----------------------------

E-2----------2--------------------)-------------------------
B-3----------3--------------------)-------------------------
G-2----2-----2---2-------2--------)-------------------------
D-0----2-----0---2-------2------%-)-------------------------
A------0---------0-------0--------)-------------------------
E------------------3b1/2----------)-------------------------

Chorus:

E-----------------------------------------------------------
B-----------------------------------------------------------
G------0------0-------0-----0----------0------0------0------
D----0------2-------4-----4----------0------2------4--------
A--2------3-------5-----7----------2------3------7----------
E-----------------------------------------------------------

E-----------------------------------------------------------
B-----------------------------------------------------------
G------0--------------0-------0------0------0----------0----
D----4--------------0-------2------4------4----------0------
A--5-----0--------2-------3------5------7----------2--------
E-----------------------------------------------------------
[ Tab from: http://www.guitartabs.cc/tabs/d/def_leppard/photograph_tab_ver_2.html ]
E-----------------------------------------------------------
B-----------------------------------------------------------
G------0------0------0--------------------------------------
D----2------4------4----------------------------------------
A--3------7------5------------------------------------------
E-----------------------------------------------------------

Fill:
E-----------------------------------------------------------
B-----------------------------------------------------------
G--4h5--4h5--4--5-5-5---4h5--5-5-5--------------------------
D-----------------------------------------------------------
A-----------------------------------------------------------
E-----------------------------------------------------------

Solo:
E-----------------------------------------------------------
B-----------------------------------------------------------
G--9-9--8-8-8---9-9--7------------9-9--8-8-8---9-9---7------
D--9-9--9-9-9---7-7--7------------9-9--9-9-9---7-7---7------
A---------------0-0--0-------------------------0-0---0------
E-----------------------0-whammy----------------------------

E------------------------------15b-15-----------------------
B-----------15b--15b-15-12----------------------------------
G-7b----7---------------------------------9v-9v-9v----9----9
D--------------------------------------------------11-------
A-----------------------------------------------------------
E-----------------------------------------------------------
           /-----\/-----\/------\   
E----------9------9------9----------12-11-9-----------------
B------------12-9---12-9----12-9-11---------12-9-12bv-------
G----9-11b--------------------------------------------------
D-11--------------------------------------------------------
A-----------------------------------------------------------
E-----------------------------------------------------------
                              /-------------\/----\/-------\
E-14b1/2-14b1/2-14--12-14-14b-14-14-12----12----------------
B--------------------------------------14----9-9-9-11-12-12-
G-----------------------------------------------------------
D-----------------------------------------------------------
A-----------------------------------------------------------
E-----------------------------------------------------------
  /------------------------------------\
E----------16----------16----16-17b-17/---------------------
B-17-17-19----19-17-19----19--------------------------------
G-----------------------------------------------------------
D-----------------------------------------------------------
A-----------------------------------------------------------
E-----------------------------------------------------------

Song:
[Intro]
[Verse]
[Bridge]
[Chorus]
[Fill]
[Verse]
[Bridge]
[Chorus]
[Solo]
[Chorus]

This song fades out at the end.  I couldn't quite get the outtro, but I know 
the Chorus is played over it.

b=Bend Full Step
b1/2=Bend half a step
/=slide up to
\=Slide down to
/-----\=Played rapidly together
%=Repeat
Comments