Def Leppard - Photograph Chords & Tabs

 

Photograph Chords & Tabs

Def Leppard Chords & Tabs

Version: 2 Type: Bass Tab 0 ratings
1 star 2 stars 3 stars 4 stars 5 stars
comments

Photograph Bass Tab

^ = Slide or Fall

Intro
around 0:12
G|-------------------------------------------------|
D|-------------7-7-----------------------7-7---7-7-| Repeat this
A|-7-7-------------7-7-7----7-7--------------5-----| until around 0:33
E|-----7-7-7--------------------7-7-7--------------|

Verses
around 0:33
G|--------------------------------|
D|--------------------------------| Repeat this
A|-7-7-7^-------------------------| until around 0:45
E|--------0-0-0-0-0-0-0-0-0-0-0-0-|
[ Tab from: http://www.guitartabs.cc/tabs/d/def_leppard/photograph_btab_ver_2.html ]
Around 0:45
G|----------------------------------------------------------------------------|
D|------------------------0-------0------------------------------0----0-------|
A|-2-3-3-3----3-2-2-2-------0-------0---0--2-3-3-3----3-2-2-2------00---0---0-|
E|------------------------------------3-----------------------------------3---|

Main Line "Photograph"
G|-------------------------------------------------------------------------------------|
D|-------------------------------------------------------------------------------------|
A|-2-2-2-3-3-3-3-3--5-5-5-7-7-7-7-7--2-2-2-3-3-3-3-3--7-7-7-5-5-5-5-5--2-2-2-3-3-3-3-3-|
E|-------------------------------------------------------------------------------------|
Comments