Def Leppard - Goodbye Chords & Tabs

 

Goodbye Chords & Tabs

Def Leppard Chords & Tabs

Version: 2 Type: Tab 0 ratings
1 star 2 stars 3 stars 4 stars 5 stars
comments

Goodbye Tab

ARTIST: Def Leppard
TITLE: Goodbye
ALBUM: Euphoria
TABBED BY: Martin Kelly


INTRO

E-------0--------0---------------0---------0------------------------3---------------------|
B---3-----3------------3-----3-----3----------------3---------------0---------------------|
G-------------2-----2------------------2-------2--------------------0---------------------|
D-------------------------------------------------------------------0---------------------|
A-------------------------------------------------------------------2---------------------|
E-------------------------------------------------------------------3---------------------|

VERSE [repeat once]

E----2------0-------------0---------------------------------------------------------------|
B----3------3----------------3------------------------3------2----------------------------|
G----2------2---------2--------2-------------------------4--------------------------------|
D----0------0---------------------------------------4-------------------------------------|
A-----------------------------------------------------------------------------------------|
E-----------------------------------------------------------------------------------------|

BRIDGE

E-------------2-------------2-----------2----------3-------------------------------------|
B----------3-------------3-----------3-------------0------------2------------------------|
G-------4-------------4-----------4----------------0------------2------------------------|
D----4-------------4------------4------------------0------------2------------------------|
A--------------------------------------------------2------------0------------------------|
E--------------------------------------------------3-------------------------------------|

CHORUS
[ Tab from: http://www.guitartabs.cc/tabs/d/def_leppard/goodbye_tab_ver_2.html ]
E-----2--------------3--------0----3----2---------2------------------2-----0---3---2------|
B-----3--------2-----0-----------3----3----3------3------2-----------3-------3---3---3----|
G-----2--------2-----0----------------------------2------2-----------4--------------------|
D-----0--------2-----0----------------------------0------2-----------4--------------------|
A--------------0-----2--------------------------------------------------------------------|
E--------------------3--------------------------------------------------------------------|

E---2-------------2---------0-----------------2----------------3--------------------------|
B---3-----2-------3---------1-----------------3------2---------0--------------------------|
G---2-----2-------4---------0-----------------2------2---------0--------------------------|
D---0-----2-------4---------2-----------------0------2---------0--------------------------|
A---------0-----------------3------------------------0---------2--------------------------|
E---------------------------0----------------------------------3--------------------------|

SOLO

E------------------------------------------------------------------------------------------|
B------------------------------------------------------------------------------------------|
G---9--11---11--14---9--11---9--11---9---9---11--9---7----9--------------------------------|
D----------------------------------------------------------------------9-------------------|
A------------------------------------------------------------------------------------------|
E------------------------------------------------------------------------------------------|

ENDING [add this on the end of the final chorus instead of the three end chords]

E---------------------------------------------------------------------------------------------|
B---------------------------------------------------------------------------------------------|
G--11--11----9----9---------------------------------------------------------------------------|
D------------------------9--------------------------------------------------------------------|
A---------------------------------------------------------------------------------------------|
E---------------------------------------------------------------------------------------------|

For a list of Easy Guitar Tabs, contact electricgod8512@aol.com
Comments