Def Leppard - Foolin Chords & Tabs

 

Foolin Chords & Tabs

Def Leppard Chords & Tabs

Version: 4 Type: Tab 0 ratings
1 star 2 stars 3 stars 4 stars 5 stars
comments

Foolin Tab

e|--------------0------------|
B|----1------1---1-----------|
G|---2--2---2-----0----------| (REAPET 9X)
D|--2----0-3-----------------| 
A|-0----------0--------------|
E|---------------------------|

e|----------|------------------------------------|
B|----------|------------------------------------|
G|-22222222-|-2--2--2--2-------2--2--2--2--7/5-5-|
D|-22222222-|-2--2--2--2---5---2--2--2--2--5/3-3-|
A|-00000000-|--00-00-00-00-3-5--00-00-00-00------|
E|----------|----------------3-------------------|
[ Tab from: http://www.guitartabs.cc/tabs/d/def_leppard/foolin_tab_ver_4.html ]
e|-------------------------------------------------------------------|
B|-------------------------------------------------------------------|
G|-2--2--2--2-------2--4--5--7---------------------------------------|
D|-2--2--2--2---5---2--2--3--5-------3-333333333333/5-555555555555/--|
A|--00-00-00-00-3-5-0----------------1-111111111111/3-333333333333/--|
E|----------------3-------------3~-3---------------------------------|

e|---------------------------------------------|
B|---------------------------------------------|
G|---------------------------------------------|
D|-3-333333333333/5-5--------------|
A|-1-111111111111/3-3--------------|
E|---------------------------------------------|

e|-----------------------------------------------------------------------|
B|-----------------------------------------------------------------------|
G|-----------------------------------------------------------------------|
A|-7/5-7-7777----3-7/5-7-7777------7/5-7-7777-----3-7/5-7-7777-------77--|
D|-5/3-5-5555--3-1-5/3-5-5555--3-5-5/3-5-5555---3-1-5/3-5-5555---3-5-55--|
E|-----------0-1-------------0-1-3------------0-1--------------0-1-3-----|

Sorry I don't know the solo yet, but I'm working on it.
Comments