Def Leppard - Everyday Chords & Tabs

 

Everyday Chords & Tabs

Def Leppard Chords & Tabs

Version: 1 Type: Tab 0 ratings
1 star 2 stars 3 stars 4 stars 5 stars
comments

Everyday Tab

   
ARTIST: Def Leppard
TITLE: Everyday
ALBUM: X
TABBED BY: Martin Kelly


INTRO [For acoustic]

A         E             D           Bm      A       E      D   Bm

VERSE 1 [Acoustic]

        A       E                     G         D
I gave in            when you gave out

                    A         E
You showed me the way to love

                   G       D
There ain't no doubt

            A[Fig.1]  E               D       Bm 
Always together         and never apart


BRIDGE [Acoustic + Second electric]

   G
1. Disappeared, didn't say a word
2. Sleeping with the ghost of you


Bm
Slept right through, guess I never heard
Dying with or without you


C
Now I'm awake but I wish I was dreamin'
Don't wanna feel this way tomorrow


CHORUS

Em   C           Em        D 
Everyday without you in my heart

Em   C     D         Em                  
Everyday I'm fallin' apart

      G   C            Em
And I know you know I think about you 

D
Everyday


VERSE 2 [Acoustic]

       A     E                  G        D
I woke up       and you were gone

         A            E
Just one night    without you

           D       Bm
Is too long


BRIDGE [Acoustic + second electric]


Em                   A             C
Don't know what you got until it's gone


SOLO [Acoustic + second electric]

Em   C     Em    D   Em   C    Em    D    Em      A    D D

CHORUS [then,]


ENDING

D
Everyday
Outta my head all the days are confused

D7                                    
Everyday
I'm lost but it's you that I don't wanna lose

Em                           Bb                    D
Everyday
We're torn 'til we're givin' ourselves to each other


INTRO

E----------------------------------------------------------------------------------------
B----------------------------------------------------------------------------------------
G--9[11]---------------------------------------------------------------------------------
D---------------7------7/11--------------------------------------------------------------
A----------------------------------------------------------------------------------------
E----------------------------------------------------------------------------------------


[ Tab from: http://www.guitartabs.cc/tabs/d/def_leppard/everyday_tab.html ]
FIG 1

E----------------------------------------------------------------------------------------
B-----------------------------------------------------------------------------------------
G--2--------------------------------------------------------------------------------------
D--2--------------------------------------------------------------------------------------
A--0--------------------------------------------------------------------------------------
E----------------------------------------------------------------------------------------

CHORUS [look familiar?!]
                                 |Repeat to here
E----------------------------------------------------------------------------------------
B----------------------------------------------------------------------------------------
G-------0------0-------0------0------0------0-------0-----0------------------------------
D-----4------4---4---4------4------4------4---4---4-----4---4----------------------------
A--2------3--------5-----7------2------3--------7-----5----------------------------------
E----------------------------------------------------------------------------------------

E--2-------------------------------------------------------------------------------------
B--3-------------------------------------------------------------------------------------
G--2-------------------------------------------------------------------------------------
D--0-------------------------------------------------------------------------------------
A----------------------------------------------------------------------------------------
E----------------------------------------------------------------------------------------

SOLO

E----------------------------------------------------------------------------------------
B----------------------10------------------------------------------------10-10-10-10-10--
G--11-12-11-9----11-12----12-11---------------------------------12----12-----------------
D-------------------------------12--9-9-7-9-10-12--10-9-7----------12--------------------
A---------------------------------------------------------7-5----------------------------
E----------------------------------------------------------------------------------------

E--10-10-10------------------------------------------------------------------------------
B----------------------------------------------------------------------------------------
G----------------------------------------------------------------------------------------
D----------------------------------------------------------------------------------------
A----------------------------------------------------------------------------------------
E----------------------------------------------------------------------------------------

for a list of tabs, contact martin.n.kelly@ntlworld.com
Comments