Def Leppard - Bringin On The Heartbreak Chords & Tabs

 

Bringin On The Heartbreak Chords & Tabs

Def Leppard Chords & Tabs

Version: 1 Type: Bass Tab 0 ratings
1 star 2 stars 3 stars 4 stars 5 stars
comments

Bringin On The Heartbreak Bass Tab

                                Def Leppard
                          Bringing on the heartbreak
                         Album:High n Dry
Written by:Rick Savage
Taken by:Armand LoConte
If there are any problems email me at Hysteria867@aol.com
intro:
E------5--0-5-5--1--0-1-1---------------------------5--5-3/1--0-1-1--12/3/7
A-------------------------3--0-3-3------5--5-6-7----------------------------
D---------------------------------------------------------------------------
G---------------------------------------------------------------------------

Verse:
E--5--5-3/1--0-1-1--12/3/7--5--5-3/1--0-1-1--12/3/7-------------------------
A---------------------------------------------------------------------------
D---------------------------------------------------------------------------
G---------------------------------------------------------------------------
[ Tab from: http://www.guitartabs.cc/tabs/d/def_leppard/bringin_on_the_heartbreak_btab.html ]
PreChorus:
E------3-3-3-3-3-3-----------------------------------------------------------
A--3-3-----------------------------------------------------------------------
D----------------------------------------------------------------------------
G----------------------------------------------------------------------------

Chorus: after this you switch back to pre chorus
E--5-1-3---------------------------------------------------------------------
A----------------------------------------------------------------------------
D----------------------------------------------------------------------------
G----------------------------------------------------------------------------

outro:play until song ends
E---3-3-3-3-3-3-3-3-3-3-3-3-3-3-3-3-3-3-3-3-3-3-3-3-3-3-3-3-3-3-3-3-3-3-3-3-3
A----------------------------------------------------------------------------
D----------------------------------------------------------------------------
G----------------------------------------------------------------------------
Comments