Deep Wound - Training Ground Chords & Tabs

 

Training Ground Chords & Tabs

Deep Wound Chords & Tabs

Version: 1 Type: Bass Tab 0 ratings
1 star 2 stars 3 stars 4 stars 5 stars
comments

Training Ground Bass Tab

This is my first tab. So, if you spot any mistakes, please inform me.

Main Riff

G|---------------------------------|
D|-----------------4-4-4-4---------|
A|---------1-1-1-1---------3-3-3-3-|
E|-2-2-2-2-------------------------|

Other Part
[ Tab from: http://www.guitartabs.cc/tabs/d/deep_wound/training_ground_btab.html ]
G|-------------------------|
D|-------2-2-2---------4---|
A|-2-2-2-------5-5-5-5---4-|
E|-------------------------|

End

G|----------------------------|
D|-----------------4-4-4-4----|
A|---------1-1-1-1---------3h-|
E|-2-2-2-2--------------------|

Order:

Main Riff x6
Other Part x4
Main Riff x4 
Other Part x4
Main Riff x4
Other Part x4
Main Riff x1
End x1
Comments