Deep Purple - Smoke On The Water Chords & Tabs

 

Smoke On The Water Chords & Tabs

Deep Purple Chords & Tabs

Version: 3 Type: Tab 0 ratings
1 star 2 stars 3 stars 4 stars 5 stars
comments

Smoke On The Water Tab

do this with overdrive
main riff
E----------------------------------------------------------
B----------------------------------------------------------
G------3------5-------------3-----6-----5-----------3----5-
D--5---3------5--------5----3-----6-----5------5----3----5-
A--5-------------------5-----------------------5-----------
E----------------------------------------------------------

E---------------
B---------------
G--3------------
D--3------5-----
A---------5-----
E---------------
              X5
                       

[ Tab from: http://www.guitartabs.cc/tabs/d/deep_purple/smoke_on_the_water_tab_ver_3.html ]
Comments