Deep Purple - Mandrake Root Chords & Tabs

 

Mandrake Root Chords & Tabs

Deep Purple Chords & Tabs

Version: 1 Type: Tab 0 ratings
1 star 2 stars 3 stars 4 stars 5 stars
comments

Mandrake Root Tab

#----------------------------------PLEASE NOTE--------------------------------#
#This file is the author's own work and represents their interpretation of the#
#song. You may only use this file for private study, scholarship, or research.#
#-----------------------------------------------------------------------------#
#-- File created with Instab - http://www.pconline.com/~smcarey/instab.html --#
#-----------------------------------------------------------------------------#

Author/Artist: Deep Purple
Title: Mandrake Root
Album: Shades Of Deep Purple
Transcribed by: Krzysztof Chyba
Email: chriss

Intro: (Ritchie Blackmore)
------------------------------------------------------------------------------|
---------------------------8--------------------------------------------------|
------7--------------------7--------------------------------------------------|
--7/9----7-5-7-5-----------6--------------------------------------------------|
------------------7-5-7----7--------------------------------------------------|
------------------------------------------------------------------------------|
[ Tab from: http://www.guitartabs.cc/tabs/d/deep_purple/mandrake_root_tab.html ]
                             x2   Bridge:
---------------------------------|--------------------------------------------|
-------8--------8--------8-------|--------------------------------------------|
-------7--------7--------7-------|--------------------------------------------|
-------6--------6--------6-------|-----5---5---5-7/8-7------5---5-------------|
-------7--------7--------7---5-6-|-7---5-7-5-7-5-7/8-7--7---5-7-5-7-5-2-------|
-0-0------0-0------0-0-------5-6-|-7-----7---7----------7-----7---7-5-2-------|


------------------------------------------------------------------------------|
------------------------------------------------8-----------------------------|
---------------------------7--------------------7-----------------------------|
-----5---5---5-7/8-7---7/9----7-5-7-5-----------6-----------------------------|
-7---5-7-5-7-5-7/8-7-------------------7-5-7----7-----------------------------|
-7-----7---7------------------------------------------------------------------|

verse:
------------------------------------------------------------------------------|
-------8--------8--------8----------------------------------------------------|
-------7--------7--------7----------------------------------------------------|
-------6--------6--------6----------------------------------------------------|
-------7--------7--------7---5-6----------------------------------------------|
-0-0------0-0------0-0-------5-6----------------------------------------------|
 I`ve got a mandrake root....        and so on.....

It`s only intro, bridge and verse, but I didn`t make the tab for chorus of this song. 
I hope you`ll like it anyway
Comments