Deep Purple - Love Conquers All Chords & Tabs

 

Love Conquers All Chords & Tabs

Deep Purple Chords & Tabs

Version: 1 Type: Tab 0 ratings
1 star 2 stars 3 stars 4 stars 5 stars
comments

Love Conquers All Tab

E |--------------0-----------|
B |-----------------0--------| 
G |--------2-----------0-----|
D |-----2-----2-----------0--| x 12
A |--0-----------------------| 
E |--------------------------|
     >                    >
then
E |--------------3-----------------------------| 
B |-----------------3--------------------0--1--| 
G |--------2-----------0-----------2-----------|   
D |-----2-----2-----------0-----2-----2--------| 
A |--0-----------------------0-----------------| 
E |--------------------------------------------|
     >           >           > 
E |--------------0-----------|
B |-----------------0--------| 
G |--------2-----------0-----|
D |-----2-----2-----------0--| x 4
A |--0-----------------------| 
E |--------------------------|
     >           >
E |--------------3-----------------------------| 
B |-----------------3--------------------0-----| 
G |--------2-----------0-----------2-----------|   
D |-----2-----2-----------0-----2-----2--------| 
A |--0-----------------------0-----------------| 
E |--------------------------------------------|
     >           >           > 
Ho__ girl...
E |--------------0-----------|
B |-----------------0--------| 
G |--------2-----------0-----| 
D |-----2-----2-----------0--| x 3
A |--0-----------------------| 
E |--------------------------|
     >           > 
[ Tab from: http://www.guitartabs.cc/tabs/d/deep_purple/love_conquers_all_tab.html ]
E |--------------------------------------0-----------|
B |-----------------------------------------0--------| 
G |--------2-----------2-----------2-----------0-----| 
D |-----2-----2-----2-----2-----2-----2-----------0--| 
A |--0-----------0-----------0-----------------------| 
E |--------------------------------------------------|
                             >           >    
E |--------------0-----------|
B |-----------------0--------| 
G |--------2-----------0-----| 
D |-----2-----2-----------0--| 
A |--0-----------------------| 
E |--------------------------|
     >           > 
E |--------------0-----------|
B |-----------------0--------| 
G |--------2-----------0-----| 
D |-----2-----2-----------0--| x 3
A |--0-----------------------| 
E |--------------------------|
     >           > 
E |--------------------------------------------| 
B |--------------3-----------------------0h1---| 
G |--------2--------2--------------2-----------|   
D |-----2-----2--------2--------2-----2--------| 
A |--0--------------------0--0-----------------| 
E |--------------------------------------------|
     >           >           >     
E |--------------3-----------------------------| 
B |-----------------3--------------------0--1--| 
G |--------2-----------0-----------2-----------|   
D |-----2-----2-----------0-----2-----2--------| 
A |--0-----------------------0-----------------| 
E |--------------------------------------------|
     >           >           >        
Then follows the electric guitar part

Play this throw the rest of the song before the solo
E |--------------0-----------|
B |-----------------0--------| 
G |--------2-----------0-----|
D |-----2-----2-----------0--| 
A |--0-----------------------| 
E |--------------------------|
     >           >
Comments