Deep Purple - Lazy Chords & Tabs

 

Lazy Chords & Tabs

Deep Purple Chords & Tabs

Version: 4 Type: Tab 0 ratings
1 star 2 stars 3 stars 4 stars 5 stars
comments

Lazy Tab

   
Lazy - Deep Purple

                                                                        
E||-------------------------|-------------------|---------------------------|
B||-------------------------|-------------------|---------------------------|
G||-------------------------|-------------------|---------------------------|
D||-------------------------|-------------------|---------------------------|
A||------------------6/-----|--8----------------|--------------------6/-----|
E||-------------------------|-------------------|---------------------------|


                                               
-------------------|--------------------------|
-------------------|--------------------------|
-------------------|--------------------------|
-------------------|--------------------------|
--8----------------|--------------------------|
-------------------|--------------------------|


                                                                   
---------------------------------|--------------------------------|
---------------------------------|--------------------------------|
---------------------------------|-------------------------8b-----|
---------6-------8----6----------|--6-------8----6----------------|
--8-----------8----------8----6--|-------8----------8-------------|
---------------------------------|--------------------------------|


                                              
------------------|--------------------------|
------------------|--------------------------|
------------------|--------------------------|
------------------|--------------------------|
------------------|--------------------------|
------------------|--------------------------|


                                                                             
-----------------------------------|----------------------------------------|
-----------------------------------|----------------------------------------|
--10------8--------8---------------|--------10------------------------------|
---------------10---------10----9--|--10--------10----10p-8---------8-------|
-----------------------------------|-------------------------11--8-------8--|
-----------------------------------|----------------------------------------|


                                                         
-----------------------------|--------------------------|
-----------------------------|--------------------------|
-----------------------------|--------------------------|
-----------------------------|--------------------------|
--11------8------------------|--------------------------|
-----------------------------|--------------------------|


                                                                 
-------------------------------|--8-----------------------------|
------------------------9------|---------9------11--------------|
----------------10-------------|----------------------10--------|
------------10-----------------|--------------------------------|
-------------------------------|--------------------------------|
-------------------------------|--------------------------------|


                                                                       
---------------------------------|------------------------------------|
----------------9----11------12p-|--11p-9------11--------9b-----------|
------------10-------------------|---------10--------10---------------|
---------------------------------|------------------------------------|
---------------------------------|------------------------------------|
---------------------------------|------------------------------------|


                                                                    
--------------------------------|----------------------------------|
----------13b-----------13------|--12------11------13--------------|
------10------------------------|------------------------10--------|
--------------------------------|----------------------------------|
--------------------------------|----------------------------------|
--------------------------------|----------------------------------|


                                                             
-----------------------------|------------------------------|
--------10b-----------9------|--------9---------------------|
-----------------------------|--10-----------8r-------------|
-----------------------------|------------------------------|
-----------------------------|------------------------------|
-----------------------------|------------------------------|


                                                                   
---------------------------------|--------------------------------|
---------------------------------|--------------------------------|
---------------------------------|-------------------------8b-----|
---------6-------8----6----------|--6-------8----6----------------|
--8-----------8----------8----6--|-------8----------8-------------|
---------------------------------|--------------------------------|


                                                                      
------------------|--------------|-----------------------------------|
------------------|--------------|-----------------------------------|
------------------|--------------|--10------8--------8---------------|
------------------|--------------|---------------10---------10----9--|
------------------|--------------|-----------------------------------|
------------------|--------------|-----------------------------------|


                                                                     
---------------------------------------|----------------------------|
---------------------------------------|----------------------------|
--------10-----------------------------|---------8b-----------------|
--10--------10----9--8-----------------|----------------------------|
--------------------------11--8--------|--8-------------------------|
-----------------------------------11--|----------------------------|


                                                             
--------------------------|---------------------------------|
--------------------------|---------------------------------|
--------------------------|---------------------------------|
--------------------------|---------1-------3----1----------|
--------------------------|--3-----------3----------3----1--|
--------------------------|---------------------------------|


                                                                 
-------------------------------|--------------------------------|
-------------------------------|--------------------------------|
-------------------------------|--------------------------------|
--1-------3----1---------------|--------------------------------|
-------3----------3------------|--3------2-------2------1-------|
-------------------------------|--------------4--------------4--|


                                      F                          
-----------------------------------|----------------------------|
-----------------------------------|----------------------------|
--------------------------------3b-|------3b-----------------3b-|
---------------1-------------------|----------------------------|
--1----2--3-------2--1-----1-------|----------------------------|
------------------------4----------|----------------------------|


                                                                   
---------------------------|--------------------------------------|
---------------------------|--------------------------------------|
------3b-------------------|--3h-4p-3--1---------1-------3--1-----|
---------------------------|--------------3-----------3--------3--|
---------------------------|--------------------------------------|
---------------------------|--------------------------------------|


                                 Bb                                 
---------------------------1--|------------------------------------|
------------------------1-----|--4p3p1-----------------------------|
--1------------------3--------|---------3--3p-1-----3-------1------|
------------------------------|------------------3-------3---------|
------------------------------|------------------------------------|
------------------------------|------------------------------------|


                                   F                                          
---------1---------------------|--------------------------------------------|
-3----3-------3--13b-----------|--13----------------------------------------|
-------------------------------|--------15--13--------15----13--15p-13------|
-------------------------------|------------------15------------------------|
-------------------------------|----------------------------------------15--|
-------------------------------|--------------------------------------------|


                                   
----------------------------------|
----------------------------------|
----------------------------------|
--13----15------14b-----------15--|
----------------------------------|
----------------------------------|


  Ab                                           
----------------------------------------------|
----------------------------------------------|
----------------------------------------------|
--15p-13------13----15--15p-13------13----15--|
----------15--------------------15------------|
----------------------------------------------|


  Eb                                       F                                  
---------------------------------------|------------------------------------|
---------------------------------------|------------------------------------|
-----------------------------13--------|--15----15b-------15----13----------|
-15p-13------13----14b-------------15--|----------------------------15------|
---------15----------------------------|------------------------------------|
---------------------------------------|------------------------------------|


                  C7              F                              
-------------------------------|---------4------6------7p-6p-4--|
-------------------------------|--6-----------------------------|
--13----15--------3r-----------|--------------------------------|
-------------------------------|--------------------------------|
-------------------------------|--------------------------------|
-------------------------------|--------------------------------|


                                                               
--6------4------7------6------|--4--6--------7------6---------|
------------------------------|----------------------------6--|
------------------------------|-------------------------------|
------------------------------|-------------------------------|
------------------------------|-------------------------------|
------------------------------|-------------------------------|


                                        Bb                                 
--4----6p4-6p-4-----4----6--6p-4-----|--4----6--6p-4-----4----6--6p-4-----|
-----------------6----------------6--|----------------6----------------6--|
-------------------------------------|------------------------------------|
-------------------------------------|------------------------------------|
-------------------------------------|------------------------------------|
-------------------------------------|------------------------------------|


                                      F                                
----------6p-4---------------------|----------------------------------|
--6----6--------6--4---------------|----------------------------------|
------------------------5/-3----1--|--3b-----3p-1-----3----1----------|
-----------------------------------|---------------3----------3----1--|
-----------------------------------|----------------------------------|
-----------------------------------|----------------------------------|


                                      Ab                             
--------------------------------1--|--------------------------------|
-----------------------------1-----|--4------1p-0-------------------|
--1-------3p-1-----1------3--------|---------------3--1-------------|
-------3--------3------------------|-------------------------3------|
-----------------------------------|--------------------------------|
-----------------------------------|--------------------------------|


  Eb                              F                                 
-------------------------------|-----------------------------------|
-----------------------1-------|-----------------------------------|
--1----2b-----2b------------3--|--1-------3----1--3p-1-----1-------|
-------------------------------|-------3----------------3-------3--|
-------------------------------|-----------------------------------|
-------------------------------|-----------------------------------|


                C7                 F                                  
--------------------------------|------------------------------------|
--------------------------------|------------------------------------|
--3p-1-----------------------3h-|--5p-3----------3h-5p-3----------3h-|
--------3--1--------------------|--------6--3-------------6--3-------|
----------------3---------------|------------------------------------|
--------------------------------|------------------------------------|


                                                                           
-----------------------------------|--------------------------------------|
-----------------------------------|-----------3--------------------------|
--5p-3----------3h-5p-3------------|--------3----h5--3--4h-5--5p-3--------|
--------6--3-------------6--3------|--3h-6--------------------------6--3--|
-----------------------------------|--------------------------------------|
-----------------------------------|--------------------------------------|


                                         Bb                                   
-------------------------------------|--------------------------------------|
----------3--------------------------|-----------3-----------------3--------|
-------3----h5--3--4h-5--5p-3--------|--------3----h5--3--4h-5--3----h5--3--|
-3h-6--------------------------6--3--|--3h-6--------------------------------|
-------------------------------------|--------------------------------------|
-------------------------------------|--------------------------------------|


                                         F                                    
-------------------------------------|--------------------------------------|
----------3-----------------3--------|--------------------------------------|
-4h-5--3----h5--3--4h-5--3----h5--3--|--8p-5-----7p-5-----4h-5--5p-3--------|
-------------------------------------|--------8--------8--------------6--3--|
-------------------------------------|--------------------------------------|
-------------------------------------|--------------------------------------|


                                    Ab                                  
---------------------------------|-------------------------------------|
-----------3---------------------|----------------------------3--------|
--------3----h5--3--4b-----------|--4b---5p-3--------------3----h5--3--|
--3h-6---------------------------|-------------6--3--3h-6--------------|
---------------------------------|-------------------------------------|
---------------------------------|-------------------------------------|


  Eb                             F                               
------------------------------|---------------------------------|
------------------------------|---------------------------------|
------------3----4b-----------|-------3b-----3b---3h-5p-3-------|
--5----6----------------------|--3-------------------------6----|
------------------------------|---------------------------------|
------------------------------|---------------------------------|


                 C7             F                               
-----------------------------|---------------------------------|
-----------------------------|---------------------------------|
--3-----------3b-------------|---------------------------------|
-------6---------------------|---------6-------8----6----------|
-----------------------------|--8-----------8----------8----6--|
-----------------------------|---------------------------------|


                                                                   
--------------------------------|------------------|--------------|
--------------------------------|------------------|--------------|
-------------------------8b-----|------------------|--------------|
--6-------8----6----------------|------------------|--------------|
-------8----------8-------------|------------------|--------------|
--------------------------------|------------------|--------------|


                                                                            
-----------------------------------|---------------------------------------|
-----------------------------------|---------------------------------------|
--10------8--------8---------------|--------10-----------------------------|
---------------10---------10----9--|--10--------10----9--8-----------------|
-----------------------------------|--------------------------11--8--------|
-----------------------------------|-----------------------------------11--|


                                                        
----------------------------|--------------------------|
----------------------------|--------------------------|
---------8b-----------------|--------------------------|
----------------------------|--------------------------|
--8-------------------------|--------------------------|
----------------------------|--------------------------|


  C                                                               
---------------------------------|-------------------------------|
---------------------------------|-------------------------------|
---------------------------------|-------------------------------|
---------1-------3----1----------|--1-------3----1---------------|
--3-----------3----------3----1--|-------3----------3------------|
---------------------------------|-------------------------------|

[ Tab from: http://www.guitartabs.cc/tabs/d/deep_purple/lazy_tab_ver_4.html ]
                                                                    
--------------------------------|----------------------------------|
--------------------------------|----------------------------------|
--------------------------------|----------------------------------|
--------------------------------|---------------1------------------|
--3------2-------2------1-------|--1----2--3-------2--1-----1------|
--------------4--------------4--|------------------------4---------|


Keyboard Solo        F                               
------------------|---------------------------------|
------------------|---------------------------------|
------------------|---------------------------------|
------------------|---------6-------8----6----------|
------------------|--8-----------8----------8----6--|
------------------|---------------------------------|


                                                                   
--------------------------------|------------------|--------------|
--------------------------------|------------------|--------------|
-------------------------8b-----|------------------|--------------|
--6-------8----6----------------|------------------|--------------|
-------8----------8-------------|------------------|--------------|
--------------------------------|------------------|--------------|


                                                                            
-----------------------------------|---------------------------------------|
-----------------------------------|---------------------------------------|
--10------8--------8---------------|--------10-----------------------------|
---------------10---------10----9--|--10--------10----9--8-----------------|
-----------------------------------|--------------------------11--8--------|
-----------------------------------|-----------------------------------11--|


                                                        
----------------------------|--------------------------|
----------------------------|--------------------------|
---------8b-----------------|--------------------------|
----------------------------|--------------------------|
--8-------------------------|--------------------------|
----------------------------|--------------------------|


  C                                                               
---------------------------------|-------------------------------|
---------------------------------|-------------------------------|
---------------------------------|-------------------------------|
---------1-------3----1----------|--1-------3----1---------------|
--3-----------3----------3----1--|-------3----------3------------|
---------------------------------|-------------------------------|


  D                                                                 
--------------------------------|----------------------------------|
--------------------------------|----------------------------------|
--------------------------------|----------------------------------|
--------------------------------|---------------1------------------|
--3------2-------2------1-------|--1----2--3-------2--1-----1------|
--------------4--------------4--|------------------------4---------|


                                                                    
--------------------------------|----------------------------------|
--------------------------------|----------------------------------|
--------------------------------|----------------------------------|
--------------------------------|---------------3------------------|
--5------4-------4------3-------|--3----4--5-------4--3-----3------|
--------------6--------------6--|------------------------6---------|



[Verses]

|: G               |  G               |  G               |  G                
   C               |  C               |  G               |  G                
   Bb              |  F               |  G               |  G  D7  :|


[1]

You're lazy just stay in bed
You're lazy just stay in bed
You don't want no money
You don't want no bread
If you're drowning you don't clutch no straw
If you're drowning you don't clutch no straw
You don't want to live you don't want to cry no more


[2]

blues-harp solo



[3]

Well my trying ain't done no good
I said my trying ain't done no good
You don't make no effort no not like you should
Lazy you just stay in bed
Lazy you just stay in bed
You don't want no money
You don't want no bread




  G                D7                   A                               
-------------------------------------|---------------------------------|
-------------------------------------|---------------------------------|
-------------------------------------|---------5-------7----5----------|
--5----3h-5p-3h-5--3h-5p-3--5p-3h-5--|--7-----------7----------7----5--|
-------------------------------------|---------------------------------|
-------------------------------------|---------------------------------|


                                                                                
-----------------------------|-----------------------------|----------------|
----------------------8b-----|--------8b-----8b-----8b-----|--8b-----8b-----|
5------7----5----------------|-----------------------------|----------------|
----7----------7-------------|-----------------------------|----------------|
-----------------------------|-----------------------------|----------------|
-----------------------------|-----------------------------|----------------|


                                                                        
---------------------------------|-------------------------------------|
--10------8-------8--------------|-------10----------------------------|
---------------9---------9----8--|--9--------9----8--7-----------------|
---------------------------------|------------------------10--7--------|
---------------------------------|---------------------------------10--|
---------------------------------|-------------------------------------|


                                                            
-----------------------------|-----------------------------|
-----------8b-------8b-------|--8b-------8b-------8b-------|
-----------------------------|-----------------------------|
--7--------------------------|-----------------------------|
-----------------------------|-----------------------------|
-----------------------------|-----------------------------|


  E                                                               
---------------------------------|-------------------------------|
---------------------------------|-------------------------------|
-----------------2---------------|----------2--------------------|
--2------5----2-------5--2-------|--2------------5--2------------|
------------------------------5--|-------5-----------------------|
---------------------------------|-------------------------------|


                                                               
------------------------------|-------------------------------|
------------------------------|-------------------------------|
------------------------------|----------------------------5/-|
------------------------------|-------------------------------|
------------------------------|--0------1------2------3-------|
--0------1------2------3------|-------------------------------|


  A                                                               
------------------------------|----------------------------------|
------------------------------|--------5-------------------------|
--2---------------------5--7--|--5--7----h7p-5-----5b------------|
---------------------7--------|-----------------7---------7------|
------------------------------|----------------------------------|
------------------------------|----------------------------------|


                                                                      
--------5---------------5---------|--------5-------------------------|
-----5-----8b-----5--5-----8b-----|--5--5-----8b-----5--5--8b-8b-----|
--7-------------------------------|----------------------------------|
----------------------------------|----------------------------------|
----------------------------------|----------------------------------|
----------------------------------|----------------------------------|


  D                                                           
--------------------------|--5-------------------------------|
--------------------------|-------8----7----5----5-----------|
--------------------------|------------------------h7p-5-----|
--------------------------|-------------------------------7--|
--------------------------|----------------------------------|
--------------------------|----------------------------------|


                                                                        
-------------------------------------|------------------------------5--|
-------------------------------------|------------------------5--8-----|
--7-------7p-5-----7p-5-----7p-5-----|--5b-----------------------------|
-------7--------7--------7--------7--|---------7----5--7---------------|
-------------------------------------|---------------------------------|
-------------------------------------|---------------------------------|


  C                                  G                              
---------------5---------------5--|--8b-----8----5--8--------------|
--8b-----5--5-----8b-----5--5-----|----------------------5---------|
----------------------------------|-----------------------------7b-|
----------------------------------|--------------------------------|
----------------------------------|--------------------------------|
----------------------------------|--------------------------------|


  A                                                         
--------------------------|--------------------------------|
--------------------------|--------------------------------|
--------------------------|--7r-----7p-5-----5b------------|
--------------------------|--------------h7---------7------|
--------------------------|--------------------------------|
--------------------------|--------------------------------|


                                                             
---------------------------|--------------------------------|
---------------------------|--------------------------------|
--------7b-----------------|--7r-7p-5---------5b------------|
---------------------------|----------h7-------------7------|
---------------------------|--------------------------------|
---------------------------|--------------------------------|


  D                                                         
----------------------------|------------------------------|
--------8b---------------5--|--8---------------------------|
----------------------------|-------7b-----5b--------------|
----------------------------|-----------------------7------|
----------------------------|------------------------------|
----------------------------|------------------------------|


  A                                                             
----------------------------|----------------------------------|
--------8b---------------5--|--5----5--------------------------|
----------------------------|----------7--5-----7-------5b-----|
----------------------------|----------------7-------7---------|
----------------------------|----------------------------------|
----------------------------|----------------------------------|


  C                             G                           
---------------5-------------|--8b-----------8------5------|
--------5-------------5------|-----------------------------|
-----------------------------|-----------------------------|
-----------------------------|-----------------------------|
-----------------------------|-----------------------------|
-----------------------------|-----------------------------|


  A                                           E7              
-------------------------------|-----------------------------|
--5----8----8------8------8b---|--------------10------8------|
-------------------------------|-----------------------------|
-------------------------------|-----------------------------|
-------------------------------|-----------------------------|
-------------------------------|-----------------------------|


  A                                                                         
----------8--------10----8-----------|--8--------10----8----------8--------|
--10-----------10-----------10----8--|-------10-----------10-----------10--|
-------------------------------------|-------------------------------------|
-------------------------------------|-------------------------------------|
-------------------------------------|-------------------------------------|
-------------------------------------|-------------------------------------|


                                                                            
--10----8-------------10---------10p---8--|--------------10b-------10b-----|
-----------10--8--10------8h-10-----------|--10----------------------------|
------------------------------------------|--------------------------------|
------------------------------------------|--------------------------------|
------------------------------------------|--------------------------------|
------------------------------------------|--------------------------------|


  D                                                                     
--10b-----10--------10----8-----------|--------------------------------|
----------------10-----------10-------|--8--10----------10------8------|
-----------------------------------9--|--------------------------------|
--------------------------------------|--------------------------------|
--------------------------------------|--------------------------------|
--------------------------------------|--------------------------------|


  A                                                                  
--------5---------5--------------|----------------------------------|
--5--8-----8-----------8----7----|--5----5--------------------------|
---------------------------------|----------7--5-----7-------5------|
---------------------------------|----------------7-------7---------|
---------------------------------|----------------------------------|
---------------------------------|----------------------------------|


  C                                 G                                
---------------------------------|----------------------------------|
---------8----5--5----8-------8--|----------------------------------|
--7b---------------------7b------|--7b---7--7p-5-----7-------5b-----|
---------------------------------|----------------7-------7---------|
---------------------------------|----------------------------------|
---------------------------------|----------------------------------|


  A                                                                    
-----------------------------------|----------------------------------|
-----------------------------------|----------------------------------|
---------5-------7p-5-----7p-5-----|--7p-5-----7p-5-----5b------------|
--7-----------7--------7--------7--|--------7--------7---------7------|
-----------------------------------|----------------------------------|
-----------------------------------|----------------------------------|


  C                               G                                
-------------------------------|----------------------------------|
-------------8---------8-------|------8---------------------------|
------7b--------7b----------7b-|---------7p-5-----5-------7-------|
-------------------------------|--------------h7-------7-------7--|
-------------------------------|----------------------------------|
-------------------------------|----------------------------------|


  A                                                                
--5-----------------------------|---------------------------------|
-------8----7----5--------------|---------------------------------|
----------------------8----7----|--5----4----------------------7b-|
--------------------------------|------------7----5---------------|
--------------------------------|----------------------7----5-----|
--------------------------------|---------------------------------|


  C                               G                          
-------------------------------|----------------------------|
--------8-----------8-------8--|--5-------------------------|
-------------7b--------7b------|-------5--------------------|
-------------------------------|----------------------------|
-------------------------------|----------------------------|
-------------------------------|----------------------------|


  A                                    E                                 
----------5-------8b-7--5--7-----7--|--------------5-----5-----5--------|
------3/5------5--------------5-----|--5--------8b----8b----8b----8--7--|
------------------------------------|-----------------------------------|
------------------------------------|-----------------------------------|
------------------------------------|-----------------------------------|
------------------------------------|-----------------------------------|


                     D7                   
-----------------------------------------|
--5------------------------------10------|
-----8--7--5---------11------11----------|
--------------7/-10------12--------------|
-----------------------------------------|
-----------------------------------------|


A                                                       Bb   A               
-----12--------------------------------------|------------------------------|
15b------15--13--15--------------------------|------------------------------|
---------------------14----------------------|------------------------------|
-------------------------14--13--12--10--12--|--10------8----7--------------|
---------------------------------------------|----------8----7--------------|
---------------------------------------------|----------6----5--------------|


                                                                            
-------5------------------------------|------------------------------------|
--8-------8--5------------------------|------------------------------------|
----------------8--7--7-5----7--5-----|------------------------------------|
--------------------------7--------7--|--5---------------------------------|
--------------------------------------|-----7--5--5-3----5----3--5----3b---|
--------------------------------------|---------------5--------------------|


                               
-----------------------------||
-----------------------------||
-----------------------------||
-----------------------------||
-----------------------------||
--5----3--------5------------||


Comments