Deep Purple - Lazy Chords & Tabs

 

Lazy Chords & Tabs

Deep Purple Chords & Tabs

Version: 3 Type: Tab 0 ratings
1 star 2 stars 3 stars 4 stars 5 stars
comments

Lazy Tab

                               LAZY
                           Deep Purple

Tab by:omanyen@fusemail.com

I've looked at the other tabs on this song and they are barely
legible. Difficult to follow, or understand. One tab even has
you playing 2 steps higher than what was recorded. I've tried
to write this in small increments to make it more easily read
and understood.

h=hammer r=rake ////=pronounced slide up /=slide up \=slide down
  rake=(pull-off)
 \\\\=pronounced slide down   x=muff with left thumb   v=vibrate

--------|--------|-x-|-----------------------------------|
--------|--------|-x-|---------------------------2////6v-|
--------|--------|-x-|---1-1-3-1-------1-3-1-------------|
-0-1--3-|-0-1--3-|-x-|-3---------3-1-3-------3-----------|
--------|--------|-x-|-----------------------------------|
--------|--------|-x-|-----------------------------------|


----------------------------------------|
-6-6--0--4-4---------4-6-4--------------|
-x------------0h3h5---------5-0-3-0-1---|
-x------------------------------------3-|
-x--------------------------------------|
-x--------------------------------------|


---------|-----4-6-4-6---|-----4--7r6r4-----4-|
---------|-4h6---------4-|-4h6----------4h6---|
---------|---------------|--------------------|
---------|---------------|--------------------|
---------|---------------|--------------------|
-1/////6-|---------------|--------------------|


-8b-6-4---4-6r4---|-4-----------------|
-x------6-------6-|-x--6-0-4-6-6\\\\--|
-x----------------|-x-----------------|
-x----------------|-x-----------------|
-x----------------|-x-----------------|
-x----------------|-x-----------------|


---------------------------------|
--------------------------2////6-|
---1-1-3-1-------1-3-1-----------|
-3---------3-1-3-------3---------|
---------------------------------|
---------------------------------|


-------------------------------------------|
-6-6--0--4-4-------4-6-4------------3////6-|
-x------------3h5---------5-0-3-0-1--------|
-x-----------------------------------------|
-x-----------------------------------------|
-x-----------------------------------------|


-----------------|--------------------------------|
-----------------|--------------------------------|
-----------------|--------------------------------|
---1-1-3-1-------|---1-----1--------1-3-4-3-1-----|
-3---------3-1-3-|-3---3-2---2--1h3-----------3-1-|
-----------------|--------------------------------|


------------------------------------|
-------------4h6r4------------------|
-5-5---5-5---------3h5r3--1h3r5---1-|
--------------------------------3---|
------------------------------------|
------------------------------------|

[ Tab from: http://www.guitartabs.cc/tabs/d/deep_purple/lazy_tab_ver_3.html ]
-------------------------------3///8--7-6-4-6-4----------|
-4h6r4--------------------------------x----------0-4-6-6-|
--------3h5r3--1h3r1---1h3r1----------x------------------|
---------------------3-------3--------x------------------|
--------------------------------------x------------------|
--------------------------------------x------------------|


---------------------------|-----4---6------------|
-4h6r4---4h6r4---4h6r4---4-|-4/6---6---6---4-6----|
-------5-------5-------5---|-------------------3b-|
---------------------------|----------------------|
---------------------------|----------------------|
---------------------------|----------------------|


-----4-6--7r6r4-6-4-7-4-----4-6-7---7r6r4---7r6r4---7r6r4---7r6r4---|
-4/6--------------------4/6---------------6-------6-------6-------6-|
--------------------------------------------------------------------|
--------------------------------------------------------------------|
--------------------------------------------------------------------|
--------------------------------------------------------------------|


---------------------------|------------------------------------------|
-4h6r4---------------4-----|-----4---4------4-6-4--4------------------|
-------5\3-1---1-3/5---3-1-|-4/5---5----4/5----------5\3-1------1-----|
-------------3-------------|--------------------------------1h3---1---|
---------------------------|----------------------------------------3-|
---------------------------|------------------------------------------|


---------------------------------------------------|
---------------------------------------------------|
-1h3/4\3r1----1h3/4\3r1---1h3/4\3r1----1h3/4\3r1---|
-----------3------------3-----------3------------3-|
---------------------------------------------------|
---------------------------------------------------|


--------------------------------------------------------|
--------------------------------------------------------|
-------0h2h3---0h4h5--0h2h3---------0h2h3--0h4h5--0h2h3-|
-0h2h3-----------------------0h2h3----------------------|
--------------------------------------------------------|
--------------------------------------------------------|


-------------------------------------------------------|
-------------------------------------------------------|
-------0h2h3--0h4h5--0h2h3--0h6h7--0h2h3--0h4h5--0h2h3-|
-0h2h3-------------------------------------------------|
-------------------------------------------------------|
-------------------------------------------------------|


-----------------------------------------------------|
-----4-----------------------------------------------|
-4/5---5-3r1--------1--3/5--3/5\3-1-3-1-----3-1-3/5--|
-------------3--1h3-----------------------3----------|
-----------------------------------------------------|
-----------------------------------------------------|

          ( Back to the Intro )

 At this point, the organ takes over the lead, followed
 by the lyrics.

 Any questions, comments, or complaints, feel free
 to E-mail me or post a thread at this sight.
Comments