Deep Purple - Fireball Chords & Tabs

 

Fireball Chords & Tabs

Deep Purple Chords & Tabs

Version: 2 Type: Tab 0 ratings
1 star 2 stars 3 stars 4 stars 5 stars
comments

Fireball Tab

i Was just listening to this and i looked for a tab of it. But to my dismay there was no
solo, so i took it upon myself to work it out and post it here for all to see. So here it
is. It ent hard but sounds pretty good. Please rate this and as i forgot to ask last time
please rate my last tab too. Have fun and remember if in doubt use backspin.
Dan
[ Tab from: http://www.guitartabs.cc/tabs/d/deep_purple/fireball_tab_ver_2.html ]
e----------------------------------------------------------------------------|
b----------------------------------------------------------------------------|
g----------------------------------------------------------------------------|
d-9b-----9b--9b---9b---7--9--9b--7------------7-----7----9--7----------------|
a------------------------------------9--7--9-----9-------------9--77---------|
E--------------------------------------------------------------------9--7-9--|b


e----------------------------------------------------------------------------|
b----------------------------------------------------------------------------|
g----------------------------------------------------------------------------|
d-----7---9---7-----------9p7---7p5---5p3---3p1----1------1------------------|
a--9--5---7---5--9------------------------------------2---2------------------|
E--7-------------7-----------------------------------------------------------|
Comments