Deep Purple - Black Night Chords & Tabs

 

Black Night Chords & Tabs

Deep Purple Chords & Tabs

Version: 4 Type: Tab 0 ratings
1 star 2 stars 3 stars 4 stars 5 stars
comments

Black Night Tab

hey this is the rhythm to black night it sounds kool and 100% correct

Deep purple - Black night.

2nd tab by Reid

|---------------------------------------------------------|
|---------------------------------------------------------|
|---------------------------------------------------------|
|---------------------------------------------------------|
|--777777--555555-----------------------------------------|
|------------------555555--3333---------------------------|  

k here is the main part

|---------------------------------------------------------|
|---------------------------------------------------------|
|---------------------------------------------------------|
|----5-----------5---7-5------------5---------------------|
|--7---7-5---5-7---7-----7---5-7-------7------------------|
|----------7----------------------------------------------|

/ = slide
[ Tab from: http://www.guitartabs.cc/tabs/d/deep_purple/black_night_tab_ver_4.html ]
|---------------------------------------------------------|
|---------------------------------------------------------|
|-----------------------------7---------------------------|
|----7-/-9--9--9--9--9-7-/-9--5--9--9--7-/-9-9-9----------| X2
|----5-/-7--7--7--7--7-5-/-7-----7--7--5-/-7-7-7----------|
|---------------------------------------------------------|
slide down quick      ^

little solo part

|------------------------------------------------------|
|------------------------------------------------------|
|------------------------------------------------------|
|------------------------------------------------------|
|--7--5-----5-----5--7-/-9--7--5-----5-----5-----------|
|--------7-----7------------------7-----7--------------|

and now for the rhythm part

|--------------------------------------------------------------|
|--------------------------------------------------------------|
|--------------------------------------------------------------|
|-------------9-9-9-9-9----------------------------------------|
|-5-5-5-5-5---7-7-7-7-7---7-7-7-7-7--5-5-5-5--9--9--9-9-9-9----|
|-3-3-3-3-3---------------5-5-5-5-5--3-3-3-3--7--7--7-7-7-7----|
not sure how many times u play it but listen to the song and u will get it

main part again

|---------------------------------------------------------|
|---------------------------------------------------------|
|---------------------------------------------------------|
|----5-----------5---7-5------------5---------------------|
|-5/7---7-5---5-7---7-----7---5-7-------7-----------------|
|----------7----------------------------------------------|

/ = slide
Comments