Deep Dish - Flashdance Chords & Tabs

 

Flashdance Chords & Tabs

Deep Dish Chords & Tabs

Version: 1 Type: Tab 0 ratings
1 star 2 stars 3 stars 4 stars 5 stars
comments

Flashdance Tab

-------------------------------------------------------------------------------
			    Flashdance - Deep Dish
-------------------------------------------------------------------------------
Tabbed by:hug-hes

Tuning:EADGBe

This is my first tab so i thought i would start with something easy. This is a new
dancy number by new chart entries deep dish...quite a catchy tune! Any input would be appreciated!

Intro
[ Tab from: http://www.guitartabs.cc/tabs/d/deep_dish/flashdance_tab.html ]
e|-------------------------------------------------------------------------|
B|-------------------------------------------------------------------------|
G|-------------------------------------------------------------------------|
D|-------------------------------------------------------------------------|
A|-------------------------------------------------------------------------|
E|-2-2-0-2-2/5-------------------------------------------------------------|

Verse & Chorus

e|-------------------------------------------------------------------------|
B|-------------------------------------------------------------------------|
G|-------------------------------------------------------------------------|
D|-4-4-4-4-4/7-x-x---------------------------------------------------------|
A|-4-4-4-4-4/7-x-x---------------------------------------------------------|
E|-2-2-0-2-2/5-x-x---------------------------------------------------------|
Comments