Deep Blue Something - Breakfast At Tiffanys Chords & Tabs

 

Breakfast At Tiffanys Chords & Tabs

Deep Blue Something Chords & Tabs

Version: 1 Type: Tab 3 ratings
1 star 2 stars 3 stars 4 stars 5 stars
comments

Breakfast At Tiffanys Tab

   
Title: Breakfast At Tiffany's
Artist: Deep Blue Something


Intro/Verse(Acoustic)

      D      D?   D    Dsus D   D?  G     A
E-----2-2-2---0---2-2---3---2---0---3-3---0
B-----3-3-3---3---3-3---3---3---3---3-3---2
G-----2-2-2---2---2-2---2---2---2---0-0---2
D-----0-0-0---0---0-0---0---0---0---0-0---2
A-----0-0-0---0---0-0---0---0---0---2-2---0
E-----x-x-x---x---x-x---x---x---x---3-3---0


Chorus:
The chords are for the acoustic guitar. The Tab is for the Electric Guitar.

     D   A    G
E--------------
B--------------
G--------------
D-----7---7---5
A-----5---7---5
E-----5---5---3


After each chorus this little riff is played:  


E----------------------------
B----------------------------
G----------------------------
D-----5-5-5-4-2-2H4----------
A-------------------5-2-2/5-4
E----------------------------
[ Tab from: http://www.guitartabs.cc/tabs/d/deep_blue_something/breakfast_at_tiffanys_tab.html ]
After the third chorus that riff is played after that the band goes into the
same riff only one octave higher. You should be able to figure that out it 
isn't hard to.

Lyrics.

Verse 1:
You'll say, we've got nothing in common
No common grounds to start from
And We're falling apart
You'll say, the world has come between us
Our lives have come between us
I say you just don't care.

Chorus: 
Ooh and I said what about 
BREAKFAST AT TIFFANY's 
She said I think I remember the film
And as I recall I think we both kinda liked it
And I said well that's the one thing we got.

Verse 2:
I see you, the only one who knew me
But now your eyes see through me
I guess I was wrong
So what now, It's plain to see we're over
And I hate when things are over With so much left undone.

Chorus
Verse 1
Chorus 
Fade

Well that's it, pretty simple. Oh and to the person who requested this song
I am not sure if this is the same song or not because it is a different band
than the one you wanted but this is all I could find. Any comments, correcions,
or questions, Email me at burrow16@hotmail.com
Have Fun!
Comments