Decoy - Moving On Chords & Tabs

 

Moving On Chords & Tabs

Decoy Chords & Tabs

Version: 1 Type: Bass Tab 0 ratings
1 star 2 stars 3 stars 4 stars 5 stars
comments

Moving On Bass Tab

moving on 
decoy

verses/solo

G:-----------------------------
D:-----------------------------
A:----------------------3--5---
E:-5----3-5--3-5--5-5-5--------

Chorus
[ Tab from: http://www.guitartabs.cc/tabs/d/decoy/moving_on_btab.html ]
G:--------------------------------------------------------------------
D:---------------------------------------------------------------0-0---
A:--3-3-3-3-3-3-3-3--------------------------------------0-0-2-2------
E:------------------3-3-3-3-3-3-3-3-1-1-1-1-1-1-1-1--3-3--------------

Thats the onlt two parts in the song, i'll let you figure
out the order to this one.
Comments