Decemberists - Tain Chords & Tabs

 

Tain Chords & Tabs

Decemberists Chords & Tabs

Version: 1 Type: Tab 0 ratings
1 star 2 stars 3 stars 4 stars 5 stars
comments

Tain Tab

Only the acoustic parts here, it's very simple.
This is my first tab, in fact I barely play my guitar, so forgive any major mistakes.

E|---------------------------------------------------------------------|
B|---------------------------------------------------------------------|
G|---------------------------------------------------------------------| x2
D|---------------------------------------------------------------------|
A|---------------------------------------------------------------------|
E|--0--3--7--6/7/6--3--0--3--7/10--11--12------------------------------|

E|-----------------------------------------------------------------------|
B|-----------------------------------------------------------------------|
G|-----------------------------------------------------------------------|
D|-----------------------------------------------------------------------|
A|-----------------------------------------------------------------------|
E|--0--3--7--6/7/6--3--0-3--7/10--11--12---------------------------------|
     Here upon this pillow

E|---------------------------------------------------------------------|
B|---------------------------------------------------------------------|
G|---------------------------------------------------------------------|
D|---------------------------------------------------------------------|
A|---------------------------------------------------------------------|
E|--0--3--7--6/7/6--3--0--3--7/10--11--12------------------------------|
    Made of reed and willow.           You're

E|---------------------------------------------------------------------|
B|---------------------------------------------------------------------|
G|---------------------------------------------------------------------|
D|---------------------------------------------------------------------|
A|---------------------------------------------------------------------|
E|--0--3--7--6/7/6--3-0-3--5--7--3--12-11-12---------------------------|
    a fickle little twister, are you sweet on your sister? Your
[ Tab from: http://www.guitartabs.cc/tabs/d/decemberists/tain_tab.html ]
E|---------------------------------------------------------------------|
B|---------------------------------------------------------------------|
G|---------------------------------------------------------------------|
D|---------------------------------------------------------------------|
A|---------------------------------------------------------------------|
E|--0--3--7--6/7/6--3--0-----------------------------------------------|
    fallow won't leave you alone.

E|---------------------------------------------------------------------|
B|---------------------------------------------------------------------|
G|---------------------------------------------------------------------|
D|---------------------------------------------------------------------|
A|---------------------------------------------------------------------|
E|------0--3-7--6/7/6--3--0-3--7/10--11--12----------------------------|
    And granted for their pleasure.

E|---------------------------------------------------------------------|
B|---------------------------------------------------------------------|
G|---------------------------------------------------------------------|
D|---------------------------------------------------------------------|
A|---------------------------------------------------------------------|
E|--0--3-7--6/7/6--3--0-3--7/10--11--12--------------------------------|
    Possessions laid to measure.      She's

E|---------------------------------------------------------------------|
B|---------------------------------------------------------------------|
G|---------------------------------------------------------------------|
D|---------------------------------------------------------------------|
A|---------------------------------------------------------------------|
E|--0--3--7--6/7/6--3-0-3--5--7--3--12-11-12---------------------------|
    a salty little pisser, With your cock in her kisser, But

E|---------------------------------------------------------------------|
B|---------------------------------------------------------------------|
G|---------------------------------------------------------------------|
D|---------------------------------------------------------------------|
A|---------------------------------------------------------------------|
E|--0--3--7--6/7/6--3--0-----------------------------------------------|
    now she's a will of her own.
Comments