Decemberists - Red Right Ankle Chords & Tabs

 

Red Right Ankle Chords & Tabs

Decemberists Chords & Tabs

Version: 1 Type: Tab 0 ratings
1 star 2 stars 3 stars 4 stars 5 stars
comments

Red Right Ankle Tab

Tabbed by: Shane M. Werley (werley1@hotmail.com)

Song: Red Right Ankle

Written and performed by: The Decemberists

Standard Tuning
A great song by a genius songwriter.  Listen to the song for rhythm.
This tab is not intended as gospel, but merely a guideline.  The chord
structure itself varies a lot and has plenty of embellishment in the
strumming patterns that adds character to the song.  Feel free to do
the same to make it sound authentic.  Please email me with corrections,
because I know there are parts of this tab that are not 100% correct,
but it is a good starter.

INTRO:

E----3-333----33-----33----3-333-------33----33------|
B----1-111----11-----11----1-111-------11----11------|
G----0-000----00-----00----0-000----0h2--------------| (2X)
D----0-000----00-----00----2-222----------0h2--------|
A---2------0h2----0h2-----3--------------------------|
E----------------------------------------------------|

VERSE:

E----3-333----33-----33----3-333----3-333------------|
B----1-111----11-----11----1-111----1-111------------|
G----0-000----00-----00----0-000----0-000--2p0-------| (1X)
D----0-000----00-----00----2-222----2-222------2-----|
A---2------0h2----0h2-----3--------3-----------------|
E----------------------------------------------------|

E----3-333----33-----33----3-333-------33----33------|
B----1-111----11-----11----1-111-------11----11-1----|
G----0-000----00-----00----0-000----------0h2---0----| (2X)
D----0-000----00-----00----2-222----0h2--------------|
A---2------0h2----0h2-----3--------------------------|
E----------------------------------------------------|

E----3-333----33-----33----3-333----3-333------------|
B----1-111----11-----11----1-111----1-111------------|
G----0-000----00-----00----0-000----0-000--2p0-------| (1X)
D----0-000----00-----00----2-222----2-222------2-----|
A---2------0h2----0h2-----3--------3-----------------|
E----------------------------------------------------|


PRE-CHORUS:

E-----0-000----00---00-----2-222---2-222-------------|
B-----1-111----11---11-----3-333---3-333-------------|
G-----2-222----22---22-----2-222---2-222-------------|  (1X)
D-----2-222----22---22---0-0-000-0-0-000-------------|
A---0-0-000--0-00-0-00-------------------------------|
E----------------------------------------------------|
[ Tab from: http://www.guitartabs.cc/tabs/d/decemberists/red_right_ankle_tab.html ]
E-----0-000----00---00-----2-222-h33-p22-------------|
B-----1-111----11---11-----3-333--33--33-------------|
G-----2-222----22---22-----2-222--22--22-------------|  (1X)
D-----2-222----22---22---0-0-000--00--00-------------|
A---0-0-000--0-00-0-00-------------------------------|
E----------------------------------------------------|

E-----0-000----00---00-----2-222---2-222-------------|
B-----1-111----11---11-----3-333---3-333-------------|
G-----2-222----22---22-----2-222---2-222-------------|  (1X)
D-----2-222----22---22---0-0-000-0-0-000-------------|
A---0-0-000--0-00-0-00-------------------------------|
E----------------------------------------------------|

CHORUS:

E-----7-777-77777777----8-888----88----88----8-888---|
B-----7-777-77777777----8-888----88----88----8-888---|
G-----0-000-00000000----0-000----00----00----0-000---|  (cont...)
D-----0-000-00000000----0-000----00----00----7-777---|
A-----x-xxx-xxxxxxxx----x-xxx----xx----xx----x-xxx---|
E---7-7-777-77777777--8-8-888--8-----7-----5---------|

E-----8-888----2-222--2-222---|
B-----8-888----3-333--3-333---|
G-----0-000----2-222--2-222---|   (1X)
D-----7-777--0-0-000--0-000---|
A-----x-xxx-------------------|
E---5-------------------------|


REPEAT INTRO
REPEAT VERSE
REPEAT PRECHORUS
REPEAT CHORUS
REPEAT INTRO

BRIDGE:

E---8-888-8-88-77--2-222-222h333p2----8-88----7---|
B---8-888-8-88-88--3-333-333-333-3----8-88---8----|
G---0-000-0-00-77--2-222-222-222-2----0-00--7-----|  (cont...)
D---7-777-7-77-00--0-000-000-000-0--7---77-0------|
A---x-xxx-x-xx----------------------x---xx--------|
E---5-555-5-55----------------------5-------------|

E---2-2-222-2--------------|
B---3-3-333-3-----3--3-3---|
G---2-2-222-2h4p2-2--4-2---|  (1X)
D---0-0-000-0--------------|
A--------------------------|
E--------------------------|

REPEAT INTRO
REPEAT VERSE
REPEAT PRE-CHORUS
REPEAT CHORUS

END ON:

E--------------------------8-888----88----88----8-888---|
B-----8-888----88----88----8-888----88----88----8-888---|
G-----9-999----99----99----0-000----00----00----0-000---| (cont...)
D-----9-999----99----99----0-000----00----00----7-777---|
A---7--------7-----5-------x-xxx----xx----xx----x-xxx---|
E------------------------8--------8-----7-----5---------|

E-----8-888----5-555----5-555-----------7---|
B-----8-888----7-777----7-777---------8-----|
G-----0-000----7-777----7-777-------7-------|
D-----7-777----7-777----7-777-----5---------|
A-----x-xxx--5-5-555--5-5-555---x-----------|
E---5---------------------------------------|

FIN.
Comments