Decay - Bottom Of Your Heart Chords & Tabs

 

Bottom Of Your Heart Chords & Tabs

Decay Chords & Tabs

Version: 1 Type: Tab 0 ratings
1 star 2 stars 3 stars 4 stars 5 stars
comments

Bottom Of Your Heart Tab

-------------------------------------------------------------------------------
			     Bottom of Your Heart - Decay
-------------------------------------------------------------------------------
Tabbed by:Chris
Email:maddman126@aol.com

US of A
No Website
Members-Chris(me), Evan, Shane, Chris D.

Tuning:Standard

Guitar 1

e|----------------------------------------------------------------------|
B|----------------------------------------------------------------------|
G|----------------------------------------------------------------------|  X4
D|--4--4-4-4--6--7--7-7-7--6--2--2-2-4-2-0-2----------------------------|
A|--4--4-4-4--6--7--7-7-7--6--2--2-2-4-2-0-2----------------------------|
E|--2--2-2-2--4--5--5-5-5--4--0--0-0-2-0-0-0----------------------------|

Guitar 2
[ Tab from: http://www.guitartabs.cc/tabs/d/decay/bottom_of_your_heart_tab.html ]
e|----------------------------------------------------------------------|
B|----------------------------------------------------------------------|
G|----------------------------------------------------------------------|
D|----------------------------------------------------------------------| X8
A|------------------3--2--0-----------3--2--0---------------------------|
E|---0--2--0--3--2-----------3--2--0------------------------------------|

Guitar 1

e|----------------------------------------------------------------------|
B|----------------------------------------------------------------------|
G|----------------------------------------------------------------------|
D|-------5-7-5---5-7----------------------------------------------------| X8
A|---5-7-------7--------------------------------------------------------|
E|----------------------------------------------------------------------|

Guitar 2

e|----------------------------------------------------------------------|
B|----------------------------------------------------------------------|
G|----------------------------------------------------------------------|
D|----9b-9b-9b-9b-9b-9b-9b-9b-------------------------------------------| X8
A|----------------------------------------------------------------------|
E|----------------------------------------------------------------------|
Comments