Decapitated - Spheres Of Madness Chords & Tabs

 

Spheres Of Madness Chords & Tabs

Decapitated Chords & Tabs

Version: 1 Type: Bass Tab

Spheres Of Madness Bass Tab

Band- Decapitated
Song- Spheres Of Madness

F||---------------------------|------------------------------|
C||*--------------------------|------------------------------|
G||---------------------------|------------------------------|
D||*--------------------------|------------------------------|
A||---5-5---5-5-----5-5-5-5---|--5-5-5-5-5-5---5-5-5-5-5-5---|


                                                                  
------------------------------|---------------------------------||
------------------------------|--------------------------------*||
------------------------------|---------------------------------||
------------------------------|--------------------------------*||
--5-5-5---5-5-5-----5-5-5-5---|--5-5-5---5-5-5---5-5-5-5-5-5----||


                                                                
--------------------------------||-----------------------------|
--------------------------------||*----------------------------|
--------------------------------||---7-7-4-4---------6-6-3-3---|
--------------------------------||*------------0-0-------------|
--5-5-5---5-5-5---5-5-5-5-5-5---||-----------------------------|


                                                                
----------------------------------|----------------------------|
----------8-8-5-5-----------------|----------------------------|
--7-7-4-4---------7-7-4-4-6-6-3-3-|--7-7-4-4---------6-6-3-3---|
----------------------------------|------------0-0-------------|
----------------------------------|----------------------------|


                                                           
---------------------------||-----------------------------|
--------------------------*||*----------------------------|
---------------------------||---7-7-4-4---------6-6-3-3---|
--0-0---0-0-----0-0-0-0---*||*----------------------------|
---------------------------||-------------5-5-------------|


                                                                
----------------------------------|----------------------------|
----------8-8-5-5-----------------|----------------------------|
--7-7-4-4---------7-7-4-4-6-6-3-3-|--7-7-4-4---------6-6-3-3---|
----------------------------------|----------------------------|
----------------------------------|------------5-5-------------|


                                                                        
---------------------------||--------------|---------------------------|
--------------------------*||--------------|---------------------------|
---------------------------||--------------|---------------------------|
--------------------------*||--------3--2--|--------3-4-3-4---3--2-0---|
--5-5---5-5-----5-5-5-5----||--5--5--------|--5--5---------------------|


                                                                   
----------------------------------||------------------------------|
----------------------------------||*-----------------------------|
----------------------------------||------------------------------|
----------------------------------||*----------3-4-3-4---3--2-0---|
--5-5-5-5-5-5-5-5-5-5-5-5-5-5-5-5-||---5-5-5-5--------------------|


                                                                        
-----------------------------------||----------------------------------|
----------------------------------*||----------------------------------|
-----------------------------------||----------------------------------|
----------------------------------*||----------------------------------|
--5-5-5-5-5-5-5-5-5-5-5-5-5-5-5-5--||--5-5-5-5-5-5-5-5-5-5-5-5-5-5-5-5-|


                                                               
-----------------------------|--------------------------------|
-----------------------------|--------------------------------|
-----------------------------|------------------4-7-4---------|
----------3-4-3-4---3--2-0---|--------------3-6-------6-3-3---|
--5-5-5-5--------------------|--5-5-5-5-5-5-------------------|


                                                     
|------------------------------|--------------------|
|*-----------------------------|--------------------|
|------------------------------|--------------------|
|*----------3-4-3-4---3--2-0---|--------------------|
|---5-5-5-5--------------------|--5/---0------------|


                                                                   
-----------------------------|-----------------------------------||
-----------------------------|----------------------------------*||
-----------------------------|-----------------------------------||
----------3-4-3-4---3--2-0---|----------------------------------*||
--5-5-5-5--------------------|--5-5-5-5-5-5-5-5-5-5-5-5-5-5-5-5--||


                                                                      
--------------------------------||-----------------------------------|
--------------------------------||*----------------------------------|
------------------4-7-4---------||-------------------4-7-4---4-------|
--------------3-6-------6-3-3---||*--0-0-0-0-0-0-3-6-------6---6-3-6-|
--5-5-5-5-5-5-------------------||-----------------------------------|


                                                                      
----------------------------------|----------------------------------|
----------------------------------|----------------------------------|
------------------4-7-4---4-------|------------------4-7-4---4-------|
--0-0-0-0-0-0-3-6-------6---6-3-6-|--0-0-0-0-0-0-3-6-------6---6-3-6-|
----------------------------------|----------------------------------|


                                        3x                            
----------------------------------------||---------------------------|
-------------------8-10-8----8---------*||*--------------------------|
--7-10-7---7--------------10---10-7-10--||---------------------------|
---------9---9-6-9---------------------*||*--------------------------|
----------------------------------------||---5-5---5-5-----5-5-5-5---|


                                                              
------------------------------|------------------------------|
------------------------------|------------------------------|
------------------------------|------------------------------|
------------------------------|------------------------------|
--5-5-5-5-5-5---5-5-5-5-5-5---|--5-5-5---5-5-5-----5-5-5-5---|


                                                                  
---------------------------------||------------------------------|
--------------------------------*||*-----------------------------|
---------------------------------||------------------------------|
--------------------------------*||*----------3-4-3-4---3--2-0---|
--5-5-5---5-5-5---5-5-5-5-5-5----||---5-5-5-5--------------------|


                                                   
--------------------|-----------------------------|
--------------------|-----------------------------|
--------------------|-----------------------------|
--------------------|----------3-4-3-4---3--2-0---|
--5/---0------------|--5-5-5-5--------------------|


                                                                      
-----------------------------------||--------------------------------|
----------------------------------*||--------------------------------|
-----------------------------------||------------------4-7-4---------|
----------------------------------*||--------------3-6-------6-3-3---|
--5-5-5-5-5-5-5-5-5-5-5-5-5-5-5-5--||--5-5-5-5-5-5-------------------|


                                                                        
|-----------------------------------|----------------------------------|
|*----------------------------------|----------------------------------|
|-------------------4-7-4---4-------|------------------4-7-4---4-------|
|*--0-0-0-0-0-0-3-6-------6---6-3-6-|--0-0-0-0-0-0-3-6-------6---6-3-6-|
|-----------------------------------|----------------------------------|

[ Tab from: http://www.guitartabs.cc/tabs/d/decapitated/spheres_of_madness_btab.html ]
                                                                           3x
----------------------------------|----------------------------------------||
----------------------------------|-------------------8-10-8----8---------*||
------------------4-7-4---4-------|--7-10-7---7--------------10---10-7-10--||
--0-0-0-0-0-0-3-6-------6---6-3-6-|---------9---9-6-9---------------------*||
----------------------------------|----------------------------------------||


                                                                 
-----------------------------|----------------------------------|
*----------------------------|----------------------------------|
---------------------2-------|--1-------2-------5-------4-------|
*--2--3--2----2-2-2----2-1-2-|----2-1-2---2-1-2---2-1-2---2-1-2-|
-----------------------------|----------------------------------|


                                                       
----------------------|--------------------------5----|
----------------------|--------------------------3----|
----------------------|-------------------------------|
--2--3--2------3------|--1-1-1-1-4-4-4-4-1-1-1-1-1----|
----------------------|-------------------------------|


                                                                
----------------------------|----------------------------------|
----------------------------|----------------------------------|
--------------------2-------|--1-------2-------5-------4-------|
--2--3--2----2-2-2----2-1-2-|----2-1-2---2-1-2---2-1-2---2-1-2-|
----------------------------|----------------------------------|


                                           3x                              
----------------------|--------------------||-----------------------------|
----------------------|-------------------*||*----------------------------|
----------------------|--------------------||---7-7-4-4---------6-6-3-3---|
--2--3--2------2------|--3----------------*||*------------0-0-------------|
----------------------|--------------------||-----------------------------|


                                                                
----------------------------------|----------------------------|
----------8-8-5-5-----------------|----------------------------|
--7-7-4-4---------7-7-4-4-6-6-3-3-|--7-7-4-4---------6-6-3-3---|
----------------------------------|------------0-0-------------|
----------------------------------|----------------------------|


                                                           
---------------------------||-----------------------------|
--------------------------*||*----------------------------|
---------------------------||---7-7-4-4---------6-6-3-3---|
--0-0---0-0-----0-0-0-0---*||*----------------------------|
---------------------------||-------------5-5-------------|


                                                                
----------------------------------|----------------------------|
----------8-8-5-5-----------------|----------------------------|
--7-7-4-4---------7-7-4-4-6-6-3-3-|--7-7-4-4---------6-6-3-3---|
----------------------------------|----------------------------|
----------------------------------|------------5-5-------------|


                                                                        
---------------------------||--------------|---------------------------|
--------------------------*||--------------|---------------------------|
---------------------------||--------------|---------------------------|
--------------------------*||--------3--2--|--------3-4-3-4---3--2-0---|
--5-5---5-5-----5-5-5-5----||--5--5--------|--5--5---------------------|


                                                                   
----------------------------------||------------------------------|
----------------------------------||*-----------------------------|
----------------------------------||------------------------------|
----------------------------------||*----------3-4-3-4---3--2-0---|
--5-5-5-5-5-5-5-5-5-5-5-5-5-5-5-5-||---5-5-5-5--------------------|


                                                                        
-----------------------------------||----------------------------------|
----------------------------------*||----------------------------------|
-----------------------------------||----------------------------------|
----------------------------------*||----------------------------------|
--5-5-5-5-5-5-5-5-5-5-5-5-5-5-5-5--||--5-5-5-5-5-5-5-5-5-5-5-5-5-5-5-5-|


                                                               
-----------------------------|--------------------------------|
-----------------------------|--------------------------------|
-----------------------------|------------------4-7-4---------|
----------3-4-3-4---3--2-0---|--------------3-6-------6-3-3---|
--5-5-5-5--------------------|--5-5-5-5-5-5-------------------|


                                                     
|------------------------------|--------------------|
|*-----------------------------|--------------------|
|------------------------------|--------------------|
|*----------3-4-3-4---3--2-0---|--------------------|
|---5-5-5-5--------------------|--5/---0------------|


                                                                   
-----------------------------|-----------------------------------||
-----------------------------|----------------------------------*||
-----------------------------|-----------------------------------||
----------3-4-3-4---3--2-0---|----------------------------------*||
--5-5-5-5--------------------|--5-5-5-5-5-5-5-5-5-5-5-5-5-5-5-5--||


                                                                      
--------------------------------||-----------------------------------|
--------------------------------||*----------------------------------|
------------------4-7-4---------||-------------------4-7-4---4-------|
--------------3-6-------6-3-3---||*--0-0-0-0-0-0-3-6-------6---6-3-6-|
--5-5-5-5-5-5-------------------||-----------------------------------|


                                                                      
----------------------------------|----------------------------------|
----------------------------------|----------------------------------|
------------------4-7-4---4-------|------------------4-7-4---4-------|
--0-0-0-0-0-0-3-6-------6---6-3-6-|--0-0-0-0-0-0-3-6-------6---6-3-6-|
----------------------------------|----------------------------------|


                                        3x                                    
----------------------------------------||-----------------------------------|
-------------------8-10-8----8---------*||*----------------------------------|
--7-10-7---7--------------10---10-7-10--||-------------------4-7-4---4-------|
---------9---9-6-9---------------------*||*--0-0-0-0-0-0-3-6-------6---6-3-6-|
----------------------------------------||-----------------------------------|


                                                                      
----------------------------------|----------------------------------|
----------------------------------|----------------------------------|
------------------4-7-4---4-------|------------------4-7-4---4-------|
--0-0-0-0-0-0-3-6-------6---6-3-6-|--0-0-0-0-0-0-3-6-------6---6-3-6-|
----------------------------------|----------------------------------|


                                        3x                                    
----------------------------------------||-----------------------------------|
-------------------8-10-8----8---------*||*----------------------------------|
--7-10-7---7--------------10---10-7-10--||-------------------4-7-4---4-------|
---------9---9-6-9---------------------*||*--0-0-0-0-0-0-3-6-------6---6-3-6-|
----------------------------------------||-----------------------------------|


                                                                      
----------------------------------|----------------------------------|
----------------------------------|----------------------------------|
------------------4-7-4---4-------|------------------4-7-4---4-------|
--0-0-0-0-0-0-3-6-------6---6-3-6-|--0-0-0-0-0-0-3-6-------6---6-3-6-|
----------------------------------|----------------------------------|


                                          
----------------------------------------||
-------------------8-10-8----8---------*||
--7-10-7---7--------------10---10-7-10--||
---------9---9-6-9---------------------*||
----------------------------------------||