Death Ss - Phoenix Mass Chords & Tabs

 

Phoenix Mass Chords & Tabs

Death Ss Chords & Tabs

Version: 2 Type: Bass Tab 0 ratings
1 star 2 stars 3 stars 4 stars 5 stars
comments

Phoenix Mass Bass Tab

This is the transcription (for bass) of the song "the phoenix mass" of
the italian band Death SS
Author: Death SS
Title : The Phoenix Mass
Album : Do What Thou Wilt        
        Bass Tab

Transcribed by Adriano Serafini ( ig1020@email.ghiglieno.it )

All textual notes refer to the tab ABOVE it. Any comments, suggestions, 
or errors refering to the tab below that should be brought to my attention, 
please e-mail me.

Tab explanations
-----------------------------------------------------
^   Forcefully             |      /   Slide up
.   Staccatto              |      \   Slide down
h   Hammer-on/ pull off    |      :   Repeat
a   Harmonic               |      ~   vibrato 
-----------------------------------------------------

[ Tab from: http://www.guitartabs.cc/tabs/d/death_ss/phoenix_mass_btab_ver_2.html ]
Main Riff       (Repeat For Many Times)
G|----------------------------------------------------------|
D|------------------------^--^------------------------^--^--|
A|---9-----10--10--9------9-10--9-----10--10--9------10-12--|
E|-----9-------------9-9----------9-------------9-9---------|
     
Bridge
G|------------------------------------------------|
D|------------------------------------------------|
A|-9~~~----7~~~----11-9-7-9~~~----7~~~----7-9-11--|
E|------------------------------------------------|
                                                                                           
Chorus
G|-----------------^-^---^-^--------------------------|
D|-----------------7-7---7-7-------------------7------|
A|--7--9-9-10----7-----7------7--9-9-10----7-7---7-9--|
E|----------------------------------------------------|


Interlude (After The First Chorus) 
G|--------------------------------------------
D|-------------------------------------------- 
A|--2222--2-2--2222--2-2--2222--2-2--2222-2-2-
E|--------------------------------------------

---------------------------------|
---------------------------------|
-5555--5-5--5555--5-5---8-7-6-5--|
---------------------------------|

Song Structure:

Main Riff   x 8 times
Bridge      x 1 time
Main Riff   x 4 times
Bridge      x 1 time
Main Riff   x 4 times
Chorus      x 2 times 
Only guitar x 2 times
Interlude   x 6 times
Main Riff   x 8 times
Bridge      x 1 time
Main Riff   x 4 times
Bridge      x 1 time
Main Riff   x 4 times
Chorus      x 2 times 

Hail and Kill!    enjoy the Heavy Demons!
Comments