Death From Above 1979 - Romantic Rights Chords & Tabs

 

Romantic Rights Chords & Tabs

Death From Above 1979 Chords & Tabs

Version: 3 Type: Bass Tab 0 ratings
1 star 2 stars 3 stars 4 stars 5 stars
comments

Romantic Rights Bass Tab

Intro:
G|---------------------------------||
D|---------------------------------||x8
A|---------------------------------||
E|-3-x-x-x-x-x-x-3-x-x-x-x-x-x-x---||

Verse
G---------------------------||
D----------3-1--------------||
A--------------3---0-1------||
E-33-3-1-3-------3----------||

Verse Variation
G--------------------3------||
D----------3-1--------------||
A--------------3---1--------||
E-33-3-1-3-------3----------||
[ Tab from: http://www.guitartabs.cc/tabs/d/death_from_above_1979/romantic_rights_btab_ver_3.html ]
Chorus
G----------3-2-3---------9-8-9---||
D--------------------------------||
A-3-3-3-3-3----3-3-3-3-3---------||
E--------------------------------||On the second chorus, he starts with the  8-9 first

Bridge
G----3-2-3-----3-2-8-------||
D--------------------------||
A-1h3-----3-1h3------------||
E--------------------------||

G---------------2h3---------------2h3-------||
D-------------------------------------------||
A-1h3-3-3-3-3-3----3-1h3-3-3-3-3-3----3-----||
E-------------------------------------------||
Comments