Death From Above 1979 - Cold War Chords & Tabs

 

Cold War Chords & Tabs

Death From Above 1979 Chords & Tabs

Version: 1 Type: Bass Tab 0 ratings
1 star 2 stars 3 stars 4 stars 5 stars
comments

Cold War Bass Tab

Well, this is my first tab with many more DFA tabs to come. Hope you enjoy it!

Artist: Death From Above 1979
Song: Cold War
CD: You're a Woman, I'm a Machine

Remember kiddies; lots of distortion.

Intro

F|----------------|
C|----------------|
G|--12\-----------|
D|----------------|

Verse

F|----------1212--------------10----------1212-------------1214-|
C|--------------1010991212--------------------1010991212--------|
G|--12121212--------------1010----12121212--------------1010----|
D|--------------------------------------------------------------|

Chorus

[part1]
F|--------------------------------------------------|
C|--------------------------------------------------|
G|--121414141414-101212121212-577777777777777777777-|
D|--------------------------------------------------|
[ Tab from: http://www.guitartabs.cc/tabs/d/death_from_above_1979/cold_war_btab.html ]
[part2]
F|--------------------------------------------------|
C|--------------------------------------------------|
G|---1214--1517--1921--1012---577777777777777777777-|
D|--------------------------------------------------|

[part3]
F|--------------------------------------------------|
C|---------------------1517-------------------------|
G|---1214--1517--1921---------577777777777777777777-|
D|--------------------------------------------------|

Outro

F|----------12-1212--------------10-|
C|------------------10-1010-9-99----|
G|--12-1212-------------------------|
D|----------------------------------|


F|----------12-1212--------------14-|
C|------------------10-1010-9-99----|
G|--12-1212-------------------------|
D|----------------------------------|

Intro (x1)
Verse (x8)
Chorus [part1] (x4)
Chorus [part2] (x2)
Chorus [part3] (x1)
Chorus [part2] (x1)
Intro (x1)
Verse (x4)
Chorus [part1] (x2)
Chorus [part2] (x2)
Chorus [part3] (x1)
Chorus [part2] (x1)
Outro (x4)

By Jarrott Brooks
JarrottB@hotmail.com
Comments