Death From Above 1979 - Black Histrory Month Chords & Tabs

 

Black Histrory Month Chords & Tabs

Death From Above 1979 Chords & Tabs

Version: 1 Type: Bass Tab 0 ratings
1 star 2 stars 3 stars 4 stars 5 stars
comments

Black Histrory Month Bass Tab

Welcome to an awesome tab, JFK is god, you know it.



Verse/Intro

|--------------------------9-9-9-9-9-9-9-------|
|----------------------------------------------|    
|------7-9-9-9-9-9-9-9-9-9---------------------|
|--7h9-----------------------------------------|

|--------------------------9-9-9-9-------------|
|----------------------------------9-9-9-------|    
|------7-9-9-9-9-9-9-9-9-9---------------------|
|--7h9-----------------------------------------|

|--------------------------9-9-9-9-9-9-9-------|
|----------------------------------------------|    
|------7-9-9-9-9-9-9-9-9-9---------------------|
|--7h9-----------------------------------------|

|--------------------------7-7-7-7-------------|
|----------------------------------9-9-9-------|    
|------7-9-9-9-9-9-9-9-9-9---------------------|
|--7h9-----------------------------------------|

Chorus
[ Tab from: http://www.guitartabs.cc/tabs/d/death_from_above_1979/black_histrory_month_btab.html ]
|-----------------------------------------------------------------------|
|----------------6-6-6--------------------------------------------------|
|--9-9-9-9-9-9-9-------7-7-7-7-7-9-9-9----------------7-7-7-------------|
|--------------------------------------10-10-10-10-10-------7-7-7-7-7---|

|-------------------------------------------------------------------------|
|------------------6-6-6--------------------------------------------------|
|------7-9-9-9-9-9-------7-7-7-7-7-9-9-9----------------7-7-7-------------|
|--7h9-----------------------------------10-10-10-10-10-------7-7-7-7-7---|

Chorus Second Time

(1st you play the 1st chorus, then you pay this one 2x)

|------------------6-6-6--------------------------------------------------|
|-----------------------------------9-9-9---------------7-7-7-------------|
|------7-9-9-9-9-9-------7-7-7-7-7----------------------------------------|
|--7h9-----------------------------------10-10-10-10-10-------7-7-7-7-7---|
Comments