Death From Above 1979 - Black History Month Chords & Tabs

 

Black History Month Chords & Tabs

Death From Above 1979 Chords & Tabs

Version: 3 Type: Bass Tab 0 ratings
1 star 2 stars 3 stars 4 stars 5 stars
comments

Black History Month Bass Tab

   
-------------------------------------------------------------------------------
			     Black History Month - Death From Above 1979
-------------------------------------------------------------------------------

Tabbed By : Deron Johnson 
e-mail: frostedfliznakes@gmail.com

This is a cool song, and the only tab up for it isnt right.  Keep in mind this is my
first tab and i play guitar but not bass.  I'm almost positive this is right, if its
not, e-mail me and correct me.

Tuning: D Standard D-G-C-F

Main Riff:
F|-----------------12-12-12-12-12-12-12------------------12-12-12-12------|
C|---5h777777777777------------------------5h777777777777-----------101010|
G|5h7-----------------------------------5h7-------------------------------|
D|------------------------------------------------------------------------|
[ Tab from: http://www.guitartabs.cc/tabs/d/death_from_above_1979/black_history_month_btab_ver_3.html ]
F|-----------------12-12-12-12-12-12-12------------------10-10-10-10------|
C|---5h777777777777------------------------5h777777777777-----------121212|
G|5h7-----------------------------------5h7-------------------------------|
D|------------------------------------------------------------------------|

Chorus Riff 1:
F|---------------4-4-4----------7-7-7---------------------------------------|
C|/7-7-7-7-7-7-7-------5-5-5-5-5------3-3-3-3-3--5-5-5----------------------|
G|-----------------------------------------------------5-5-5-5-5------------|
D|--------------------------------------------------------------------------|

Chorus Riff 2:
F|------------------12-12-12------------10-10-10------------7-7-7-----------|
C|---5h777777777777-----------5-5-5-5-5-----------3-3-3-3-3-----------------|
G|5h7--------------------------------------------------------------5-5-5-5-5|
D|--------------------------------------------------------------------------|

Song Order:
Main Riff x2
Chorus 1  x2
Main Riff x2
Chorus 1  x2
Chorus 2  x2
Main Riff x2
Chorus 1  x2
Chorus 2  x2
Chorus 1  x2
Chorus 2  x2
Main Riff x2


| /  slide up
| \  slide down
| h  hammer-on
| p  pull-off
| ~  vibrato
| +  harmonic
| x  Mute note
===============================================================================
Comments