Death Cab For Cutie - Your Heart Is An Empty Room Chords & Tabs

 

Your Heart Is An Empty Room Chords & Tabs

Death Cab For Cutie Chords & Tabs

Version: 1 Type: Tab 0 ratings
1 star 2 stars 3 stars 4 stars 5 stars
comments

Your Heart Is An Empty Room Tab

   
Band : Death Cab For Cutie
Song : Your Heart Is An Empty Room
Album: Plans
Tabbed By: Calum (afirock74@hotmail.com)
Standard Tuning (low to high) = E, A, D, G, B, E 

x   - Palm Mute
b   - Bend
b~  - Bend Up Then Down
h   - Hammer-On Directly After Note Before

Intro:
e|-0--|
B|-1--|
G|-0--|
D|-2--| Repeated
A|-3--|
E|----|


Verse:
e|--------------------------------------------------------|
B|-1-1-1-1--0-0-0-0---------------------------------------|
G|-0-0-0-0--0-0-0-0---------------------------------------|
D|-2-2-2-2--2-2-2-2--7-7-7-7--5-5-5-5--3-3-3-3-3-3-3-3-3--|
A|-3-3-3-3--2-2-2-2--7-7-7-7--5-5-5-5--3-3-3-3-3-3-3-3-3--|
E|----------0-0-0-0--5-5-5-5--3-3-3-3--1-1-1-1-1-1-1-1-1--|
[ Tab from: http://www.guitartabs.cc/tabs/d/death_cab_for_cutie/your_heart_is_an_empty_room_tab.html ]
Chorus:
e|-0-0-0-0-0-0-0--1-1-1-1-1-1----|--------------------------------------|
B|-1-1-1-1-1-1-1--1-1-1-1-1-1----|--------------------------------------|
G|-0-0-0-0-0-0-0--2-2-2-2-2-2----|--------------------------------------|
D|-2-2-2-2-2-2-2--3-3-3-3-3-3--2x|-7-7-7-7--5-5-5-5--3-3-3-3-3-3-3-3-3--|2x 
A|-3-3-3-3-3-3-3--3-3-3-3-3-3----|-7-7-7-7--5-5-5-5--3-3-3-3-3-3-3-3-3--|
E|-------------------------------|-5-5-5-5--3-3-3-3--1-1-1-1-1-1-1-1-1--|

Riff:
e|---10---5--7--8-----|
B|-8---------------8--|
G|--------------------|
D|--------------------|
A|--------------------|
E|--------------------|

Piano Part:
e|-------------------------|
B|-------------------------|
G|-9-----12-9---9-----12---|
D|----10-----------10---12-|
A|-------------------------|
E|-------------------------|
Comments