Death Cab For Cutie - We Looked Like Giants Chords & Tabs

 

We Looked Like Giants Chords & Tabs

Death Cab For Cutie Chords & Tabs

Version: 1 Type: Tab 0 ratings
1 star 2 stars 3 stars 4 stars 5 stars
comments

We Looked Like Giants Tab

   
Death Cab for Cutie
"We Look Like Giants"
tabbed by Logan D.


Capo 2


intro (guitar)


(Am7)


e----------------------------------------------------------
b--1-0--------1-0----------0-1-0-1-0-1---1-3-1-3-1-3---0-1-
g-----0----------0---------0-0-0-0-0-0---0-0-0-0-0-0--2----
d------2-0h2------2-0h2------------------------------------
a-0----------0------------3--------------------------------
e--------------------------------------3-------------------


verse


  Am Cmaj7 G


e---0--0----------
b---1--0----------
g---2--0-0--------
d---2--2-0--------
a-0-0--3-x--0-2-3-
e--------3--------


bridge (and together there)


2x

[ Tab from: http://www.guitartabs.cc/tabs/d/death_cab_for_cutie/we_looked_like_giants_tab.html ]
e----------------------------------------------------------------------------------------
b----------------------------------------------------------------------------------------
g-2-2--2--2-2--2--2-2--2--2-2--2--------------------------------4-4--4--4-4--4--4-4--4--4
d-2-2--2--2-2--2--2-2--2--2-2--2-3-3--3--3-3--3--3-3--3--3-3--3-5-5--5--5-5--5--5-5--5--5
a-0-0--0--0-0--0--0-0--0--0-0--0-3-3--3--3-3--3--3-3--3--3-3--3-5-5--5--5-5--5--5-5--5--5
e--------------------------------1-1--1--1-1--1--1-1--1--1-1--1-3-3--3--3-3--3--3-3--3--3


e-0-0--0-0--0--0
b-0-0--0-0--0--0
g-1-1--1-1--1--1
d-0-0--0-0--0--0
a-2-2--2-2--2--2
e-0-0--0-0--0--0


outro (listen to the song for rythm)


e-0-0
b-0-0
G-4-2
d-5-3
a-5-3
e-3-1


last riff...


e----------------------------
b--3-----------------3-------
g----------------------------
d------0-2-0-----------0-----
a-----2------2-3-2-----2-3-5-
e-1--3-------------1---3-----


e----------------------------
b--3-----------------3-------
g----------------------------
d------0-2-0-----------0-----
a--3--2------2-3-2--3--2-3-5-
e-1--3-------------1---3-----
Comments