Death Cab For Cutie - Title And Registration Chords & Tabs

 

Title And Registration Chords & Tabs

Death Cab For Cutie Chords & Tabs

Version: 8 Type: Tab 0 ratings
1 star 2 stars 3 stars 4 stars 5 stars
comments

Title And Registration Tab

I really like the tabs that are already up (and I relied on them heavily in figuring 
one out), but I didn't think any one of them was entirely accurate.

Tuning is standard, but I put a capo on the second fret.  You can do this without a capo 
easily (just add two to every number), but the capo makes it much easier.

I break it down into five sections (really more like three with variations).
I play them in this order - 1212 - 3333 - 1 - 1212 - 3333 - 4 - 3333 - 5.

Part 1
----------------------------------------------------------------------------|
--------------0----------------------0----------------0--3--0--1--0---------|
----0---0---2---2--0-------0---0---2---2--0---0-------0--------------2--0---|
--2---2---2----------2---0---0---0----------0---------2---------------------|
-----------------------3------------------------3--3--3---------------------|
----------------------------------------------------------------------------|
[ Tab from: http://www.guitartabs.cc/tabs/d/death_cab_for_cutie/title_and_registration_tab_ver_8.html ]
Part 2 is almost identical to Part I, except for the very end.
----------------------------------------------------------------------------|
--------------0----------------------0----------------0---------------------|
----0---0---2---2--0-------0---0---2---2--0---0-------0--0------------------|
--2---2---2----------2---0---0---0----------0---------2---------------------|
-----------------------3------------------------3--3--3---------------------|
----------------------------------------------------------------------------|

Part 3 is usually played four times in succession.
-------------------------------------------------------|
------0-----0---------0-----0---------0---1------------|
----0-----0---0-----0-----0---0-----0---0--------------|
----------------0---------------0----------------------|
--3-----3-------------------------0--------------------|
------------------3-----3------------------------------|

Part 4 is played only once in the song. Listen to the song for timing.
Of course, this is translated for the guitar.
---------------------------------7----------------------------------5-7-----|
--5-7-8-5-7-8---5------5-7-8-5-8-----5------5-7-8-5-7-8---5---5-7-8---------|
--------------5---7----------------5---7----------------5---7---------------|
----------------------------------------------------------------------------|
----------------------------------------------------------------------------|
----------------------------------------------------------------------------|

Part 5 is played at the very end.
                                               (repeat to close.)
--------------------------------------------[-------------------|
------0-----0---------0-----0---------0---1-[-----0-----0-----0-|
----0-----0---0-----0-----0---0-----0---0---[---0-----0-----0---|
----------------0---------------0-----------[-------------------|
--3-----3-------------------------0---------[-------------------|
------------------3-----3-------------------[-3-----3-----3-----|
Comments