Death Cab For Cutie - Title And Registration Chords & Tabs

 

Title And Registration Chords & Tabs

Death Cab For Cutie Chords & Tabs

Version: 3 Type: Tab 0 ratings
1 star 2 stars 3 stars 4 stars 5 stars
comments

Title And Registration Tab

-----------------------------------------------------------------------------
		Title and Registration - Death Cab For Cutie
-----------------------------------------------------------------------------
Tabbed by:Ian Ursprung (armistice369)
Email:armistice369@verizon.net

Tuning:standard EADGBE

alright so i saw this tab already up... but it can be just as easily played
without the capo. So in case you don't have one, here it is.

 Verse
e|--------------------------------------------------------------------------|
B|------------------------------2-5-2-3-2-----------------------------------|
G|-------6-------------6--------2--------4-2--------------------------------|
D|--7-7-9-9-7-----7-7-9-9-7-----4-------------------------------------------|
A|-9-9-------9-5-7-7-------9-55-5-------------------------------------------|
E|--------------------------------------------------------------------------|
[ Tab from: http://www.guitartabs.cc/tabs/d/death_cab_for_cutie/title_and_registration_tab_ver_3.html ]
e|--------------------------------------------------------------------------|
B|------------------------------2-------------------------------------------|
G|-------6-------------6--------2-------------------------------------------|
D|--7-7-9-9-7-----7-7-9-9-7-----4--4----------------------------------------|
A|-9-9-------9-5-7-7-------9-55-5-5-----------------------------------------|
E|--------------------------------------------------------------------------|

 Chorus
 start at second half of the word "change" at 0:45 and continue into chorus
e|--------------------------------------------------------------------------|
B|----2-----2-----2-----2-----2--3------------------------------------------|
G|---2-2---2-2---2-2---2-2---2-2--------------------------------------------|
D|-0-----0------------------------------------------------------------------|
A|-------------0-----0-----2------------------------------------------------|
E|--------------------------------------------------------------------------|

 Bridge 2:33-2:51
 Alright it's hard to hear exactly what he's doing... so i'll just give you
 a basic scale and you can just do your own thing
e|-----------------------------2-4-5----------------------------------------|
B|-----------------------2-3-5----------------------------------------------|
G|-------------------2-4----------------------------------------------------|
D|-------------2-4-6--------------------------------------------------------|
A|-------2-4-5--------------------------------------------------------------|
E|-2-4-5--------------------------------------------------------------------|
Comments