Death Cab For Cutie - Tiny Vessels Chords & Tabs

 

Tiny Vessels Chords & Tabs

Death Cab For Cutie Chords & Tabs

Version: 3 Type: Tab 0 ratings
1 star 2 stars 3 stars 4 stars 5 stars
comments

Tiny Vessels Tab

   
A  (x6)

   1 + 2  + 3 + 4 + | 1 + 2 + 3 + 4 +
e|----------7---9---|-----5---7-------|
B|10---10-----------|-8-----------8---|
G|-9-9----9---9---9-|-7-7---7---7---7-| gt. 1
D|-7----------------|-5---------------|  (x2)
A|------------------|-----------------|
E|------------------|-----------------|


   1 + 2 + 3 + 4 + |        | 1 + 2 + 3 + 4 + | 1 + 2 + 3 + 4 + |
e|-----------------|--------|-----------------|-----------------|
B|-----------------|--0--/--|-----------------|-----------------|
G|-----------------|----/---|-----------------|-----------------| gt. 2
D|-----7---9--11---|---/----|-----7---9---7---|---4---4---2---2-|
A|-9-9---9---9---9-|--/--0--|-7-7---7---7---7-|-5---4---2---0---|
E|-----------------|--------|-----------------|-----------------|




B  (gt. 1)

                            4
e|-----------------------------------------------------|
B|-----------|-----------------------------|-----------|
G|-----------|_____________________________|-----------|
D|-----------|_____________________________|-----------|
A|-----------|-----------------------------|-----------|
E|-----------------------------------------------------|

[ Tab from: http://www.guitartabs.cc/tabs/d/death_cab_for_cutie/tiny_vessels_tab_ver_3.html ]
    1  +  2  +  3  +  4  +  |  1  +  2  +  3  +  4  +  |\
e|--------------------------|--------------------------| \
B|--------------------------|--------------------------|  \
G|--9--9--9--9--9--9--9--9--|-11-11-11-11-11-11-11-11--|   \
D|--9--9--9--9--9--9--9--9--|-11-11-11-11-11-11-11-11--|    \
A|--7--7--7--7--7--7--7--7--|--9--9--9--9--9--9--9--9--|     \
E|--------------------------|--------------------------|      \
                                                               \ x2
    1  +  2  +  3  +  4  +  |  1  +  2  +  3  +  4  +  |       /
e|--------------------------|--------------------------|      /
B|--------------------------|--------------------------|     /
G|--------------------------|--------------------------|    /
D|--9--9--9--9--9--9--9--9--|--9-11-11-13-13-14-14--9--|   /
A|--9--9--9--9--9--9--9--9--|--9-11-11-13-13-14-14--9--|  /
E|--7--7--7--7--7--7--7--7--|--7--9--9-11-11-12-12--7--| /


    1  +  2  +  3  +  4  +  |  1  +  2  +  3  +  4  +  |
e|--------------------------|--------------------------|
B|--------------------------|--------------------------|
G|-11-11-11-11-11-11-11-11--|-11-----------------------| 
D|-11-11-11-11-11-11-11-11--|-11-----------------------|
A|--9--9--9--9--9--9--9--9--|--9-----------------------|
E|--------------------------|--------------------------|


 B (gt. 2)
                                                        
    1  +  2  +  3  +  4  +  |  1  +  2  +  3  +  4  +  |
e|--------------------------|--------------------------|\
B|--------------------------|--------------------------| \
G|--7--7--7--7--7--7--7--7--|--9--9--9--9--9--9--9--9--|  \
D|--7--7--7--7--7--7--7--7--|--9--9--9--9--9--9--9--9--|   \
A|--5--5--5--5--5--5--5--5--|--7--7--7--7--7--7--7--7--|    \
E|--------------------------|--------------------------|     \
                                                              \  x3
    1  +  2  +  3  +  4  +  |  1  +  2  +  3  +  4  +  |      /
e|--------------------------|--------------------------|     /
B|--------------------------|--------------------------|    /
G|--------------------------|--------------------------|   /
D|--7--7--7--7--7--7--7--7--|--7--9--9-11-11-13-13--7--|  /
A|--7--7--7--7--7--7--7--7--|--7--9--9-11-11-13-13--7--| /
E|--5--5--5--5--5--5--5--5--|--5--7--7--9--9-11-11--5--|/


    1  +  2  +  3  +  4  +  |  1  +  2  +  3  +  4  +  |
e|--------------------------|--------------------------|
B|--------------------------|--------------------------|
G|--7--7--7--7--7--7--9--9--|--7-----------------------|
D|--7--7--7--7--7--7--9--9--|--7-----------------------|
A|--5--5--5--5--5--5--7--7--|--5-----------------------|
E|--------------------------|--------------------------|

 Repeat A (x6)


Thank You
Thank You

/\   /\     -  -    ||
| | |  |   / \/ \   ||
\ \ |/\|  |      |  ||
| | |  |  |      |
\/  |  |  |      |  ||
Comments