Death Cab For Cutie - Summer Skin Chords & Tabs

 

Summer Skin Chords & Tabs

Death Cab For Cutie Chords & Tabs

Version: 1 Type: Bass Tab 0 ratings
1 star 2 stars 3 stars 4 stars 5 stars
comments

Summer Skin Bass Tab

   
Song: Summer Skin
Band: Death Cab For Cutie
Album: Plans
Tabbed by: Kyle MacDonald (kylehnat@hotmail.com)

Tuning: Standard (E,A,D,G)

Intro
G|-------------------------------------|
D|------------8-8-7-----------8-7------|
A|--------5-8-------8-------5-----5-8--|
E|10/-6-6---------------6-6------------|

Part A
G|------10-12-14-12-10-----------------------------------|
D|12-12------------------------8-8-7-----------8-7-----5-|
A|-------------------------5-8-------8-------5-----5-8---|
E|---------------------6-6---------------6-6-------------|

Part B
G|------10-12-14-12-10-----------------------------------|
D|12-12------------------------8-8-7-----------8-7-------|
A|-------------------------5-8-------8-------5-----5-8---|
E|---------------------6-6---------------6-6-------------|
[ Tab from: http://www.guitartabs.cc/tabs/d/death_cab_for_cutie/summer_skin_btab.html ]
(Parts A and B differ only in the final note.  Listing
them separately makes it easier to list the order in 
which all the parts belong.)

/ Bridge
/ G|---------------------------------------|
/ D|--------8-8-7--------------------------|
/ A|----5-8-------8--------------3----1----|
/ E|6-6---------------------1--------------|
/
/ G|---------------------------------------|
/ D|0---10---7-----------------------------|
/ A|5---7----8-------------------3----1----|
/ E|------------------------1--------------|

/ Outro
/ G|------10-12-14-12-10-------------------|
/ D|12-12------------------------8-8-7-----|
/ A|-------------------------5-8-------8---|
/ E|---------------------6-6---------------|
/
/ G|----------------------------|
/ D|----------------------------|
/ A|-------5--7--------5--8-----|
/ E|-------------6-----------6--|


Order:
Intro
A
B
A
A
B
A
B
A
B
A
Bridge
A
B
A
Outro
----------------------------------------------------------
Comments