Death Cab For Cutie - Soul Meets Body Chords & Tabs

 

Soul Meets Body Chords & Tabs

Death Cab For Cutie Chords & Tabs

Version: 1 Type: Chords

Soul Meets Body Chords

   
There are 2 different strumming methods for this song.

The first and easiest method is: 

Down, Up, Down, Up, Down, Up... 
through the whole song (Unless noted otherwise)

Second method wich is:

Down, Down, Up, Up, Down, Up, Down, Down, Up, Up... 
through the whole song (Unless noted otherwise)

Tuning: Capo on 4th or 5th fret depending on how Your guitar is tuned

@ = Palm mute

Am              C               G
e|-----------|  e|-----------|  e|-------3---|
B|--1--------|  B|--1--------|  B|-----------|
G|----2------|  G|-----2-----|  G|-----------|
D|----2------|  D|-----------|  D|-----------|
A|-----------|  A|--------3--|  A|----2------|
E|-----------|  E|-----------|  E|-------3---|


Am                   C
I want to live where soul meets body
Am                       C
And let the sun wrap its arms around me
Am                         C
And bathe my skin in water cool and cleansing
    G                              Am
And feel, feel what its like to be new

                           C
Cause in my head thereís a greyhound station
Am                          C
Where I send my thoughts to far off destinations
Am                           C
So they may have a chance of finding a place
              G
where theyíre far more suited than here


Am   C            G
I do believe itís true
               Am            C           G
That there are roads left in both of our shoes
       Am            C
If the silence takes you
       G
Then I hope it takes me too


e|-------------------------------------------------------------------------|
B|-------------------------------------------------------------------------|
G|-------------------------------------------------------------------------|
D|-------------------------------------------------------------------------|
A|---------------------------2--2--2--2--2--2--2--2------------------------|
E|--5--5--0--0--1--1--3--3---3--3--3--3--3--3--3--3------------------------|


   Am           C        G
So brown eyes I hold you near
                 Am          C       G
Cause youíre the only song I want to hear
       Am       C       G
A melody softly soaring through my atmosphere


e|-------------------------------------------------------------------------|
B|-------------------------------------------------------------------------|
G|-------------------------------------------------------------------------|
D|-------------------------------------------------------------------------|
A|---------------------------2--2--2--2--2--2--2--2------------------------|
E|--5--5--0--0--1--1--3--3---3--3--3--3--3--3--3--3------------------------|

[ Tab from: http://www.guitartabs.cc/tabs/d/death_cab_for_cutie/soul_meets_body_crd.html ]
Am                  C
I cannot guess what we'll discover
Am                        C
We turn the dirt with our palms cupped like shovels
      Am                       C
But I know our filthy hand can wash one anotherís
    G
And not one speck will remain

Am   C            G
I do believe itís true
               Am            C           G
That there are roads left in both of our shoes
       Am            C
If the silence takes you
       G
Then I hope it takes me too


e|-------------------------------------------------------------------------|
B|-------------------------------------------------------------------------|
G|-------------------------------------------------------------------------|
D|-------------------------------------------------------------------------|
A|---------------------------2--2--2--2--2--2--2--2------------------------|
E|--5--5--0--0--1--1--3--3---3--3--3--3--3--3--3--3------------------------|


(Strum loudly)
      Am   @     Am    C  Am   @   Am     (Listen to song for strumming
Where soul meets body                      to know how to strum this part)
      Am   @     Am    C
Where soul meets body
G
Where soul meets body

Am   C            G
I do believe itís true
               Am            C           G
That there are roads left in both of our shoes
       Am            C
If the silence takes you
       G
Then I hope it takes me too


e|-------------------------------------------------------------------------|
B|-------------------------------------------------------------------------|
G|-------------------------------------------------------------------------|
D|-------------------------------------------------------------------------|
A|---------------------------2--2--2--2--2--2--2--2------------------------|
E|--5--5--0--0--1--1--3--3---3--3--3--3--3--3--3--3------------------------|


   Am           C        G
So brown eyes I hold you near
                 Am          C       G
Cause youíre the only song I want to hear
      Am        C       G
A melody softly soaring through my atmosphere


e|-------------------------------------------------------------------------|
B|-------------------------------------------------------------------------|
G|-------------------------------------------------------------------------|
D|-------------------------------------------------------------------------|
A|---------------------------2--2--2--2--2--2--2--2------------------------|
E|--5--5--0--0--1--1--3--3---3--3--3--3--3--3--3--3------------------------|


(Strum lightly)
      Am        C       G
A melody softly soaring through my atmosphere       
      Am        C       G
A melody softly soaring through my atmosphere
      Am        C       G
A melody softly soaring through my atmosphere