Death Cab For Cutie - Passenger Seat Chords & Tabs

 

Passenger Seat Chords & Tabs

Death Cab For Cutie Chords & Tabs

Version: 1 Type: Tab 1 rating
1 star 2 stars 3 stars 4 stars 5 stars
comments

Passenger Seat Tab

   
Death Cab for Cutie
"Passenger Seat"
Tabbed by Logan D.

intro/verse (piano arranged for guitar)


  D shape

e--2-------2------14-------3-2-0-2---
b---------------------15-------------
g---2-0------2-0----14---------------
d-0-------0--------------------------
a----------------0-------2-----------
e------------------------------------


e--2-------2------14-------3-2-0-2-0---
b---------------------15-------------3-
g---2-0------2-0---14------------------
d-0-------0----------------------------
a---------------0-------2--------------
e--------------------------------------



chorus (do they collide?)
[ Tab from: http://www.guitartabs.cc/tabs/d/death_cab_for_cutie/passenger_seat_tab.html ]
e--------------------------------2-------
b--------------------2-0-----------------
g----0---------2-------------0----2-0----
d---0-0---0-4-4---0-4-----0-4-4-0----4-2-
a--2---2-2-------2-------2---------------
e-3-----3-------3-------3----------------
 
 
e--------------------------------2----2-----
b--------------------2-0--------------------
g----0---------2-------------0----2-0--2-0--
d---0-0---0-4-4---0-4-----0-4-4-0----0------
a--2---2-2-------2-------2------------------
e-3-----3-------3-------3-------------------


bridge (when you feel...)


A G D G


for all time...


e----------------
b----------------
g-------6--7--4--
d-4--4--4--4--5--
a-5--5--5--5--5--
e-6--7--------3--
Comments