Death Cab For Cutie - Marching Bands Of Manhattan Chords & Tabs

 

Marching Bands Of Manhattan Chords & Tabs

Death Cab For Cutie Chords & Tabs

Version: 1 Type: Tab 2 ratings
1 star 2 stars 3 stars 4 stars 5 stars
comments

Marching Bands Of Manhattan Tab

   
Title: Marching Bands of Manhattan
Band:Death Cab for Cutie
Albumn: Plans (2005)
Author: Ben Gibbard
Tabber: Neil Hawbaker

Intro and Verses -
E ----------------------------------------------
B ----------------------------------------------
G ----------------------------------------------
D ----------------------------------------------
A-10-10-10-10-10-10-10-10-10-10-10-10-5-5-5-5---
E -8--8--8--8--8--8--8--8--7--7--7--7-3-3-3-3---

E----------------------------------
B----------------------------------
G----------------------------------
D 7-7-7-7-7-7-7-7------------------
A 5-5-5-5-5-5-5-5-3-3-3-3-3-3-3-3--
E ----------------1-1-1-1-1-1-1-1--

Break after chorus-
E-----------------------------------
B-----------------------------------
G-----------------------------------
D-----------------------------------
A-----------------------------------
E-8-8-8-8-8-8-8-7-7-5-5-5-5-5-5-5-5-

E ---------------------------------
B ---------------------------------
G ---------------------------------
D ---------------------------------
A-5-5-5-5-5-5-5-5-7-7-7-7-7-7-7-7--
E----------------------------------

The lead part (sounds like E-Bow, or just distortion w/ alot sustain)
This plays through the Break and Verse Two

E--------------------
B-1-13-12-8-5-3------
G--------------------
D--------------------
A--------------------
E--------------------

Chorus
[ Tab from: http://www.guitartabs.cc/tabs/d/death_cab_for_cutie/marching_bands_of_manhattan_tab.html ]
E---------------------------------------------
B---------------------------------------------
G---------------------------------------------
D---------------------------------------------
A---------------------------------------------
E-8-8-8-8-8-8-8-7-7-5-5-5-5-5-5-5-5-----------

E-----------------------------------------
B-----------------------------------------
G-----------------------------------------
D-----------------------------------------
A-5-5-5-5-5-5-5-5-7-7-7-7-7-7-7-7---------
E-----------------------------------------

Chords in Background


E-1-1-5-5-8-8-10-10------
B-1-1-5-5-8-8-10-10------
G 3-3-5-5-9-9-10-10------
D------------------------
A------------------------
E------------------------

This comes in eventually

E--------------------------------------------
B--------------------------------------------
G-5-5-5-5-5-5-5-5-9-9-9-9-9-9-9-9------------
D-3-3-3-3-3-3-3-3-7-7-7-7-7-7-7-7------------
A--------------------------------------------
E--------------------------------------------

E------------------------------------------
B-9-9-9-9-9-9-9-9-11-11-11-11-11-11-11-11--
G-5-5-5-5-5-5-5-5-7--7--7--7---7--7--7--7--
D------------------------------------------
A------------------------------------------
E------------------------------------------

The Piano Part

E-----------------------------------------------------
B-5-5-5-5-5-8--8----------7-7-------5-3-3-5-3---------
G ------------7--7---5-7------5-7---------------------
D-----------------------------------------------------
A-----------------------------------------------------
E-----------------------------------------------------






Comments