Death Cab For Cutie - Lack Of Color Chords & Tabs

 

Lack Of Color Chords & Tabs

Death Cab For Cutie Chords & Tabs

Version: 3 Type: Tab 0 ratings
1 star 2 stars 3 stars 4 stars 5 stars
comments

Lack Of Color Tab

This is 100% correct!


Tuned down 1/2 step


Intro/Verse:


eb|-------------------------------| 
Bb|-------------------------------| 
Gb|-------------------------------|
Db|-------------------------------|
Ab|-11-11-11-11-11-11-11/7-7------| 
Eb|0--0--0--0--0--0--0----0-0-----|  


eb|--------------------------------|   
Bb|--------------------------------|
Gb|--------------------------------|   
Db|--------------------------------|
Ab|--7/11-11-11-11-11-11/9-9-------|  
Eb|-0-0--0--0--0--0--0----0-0------|   

                            
eb|--------------------------------------------|
Bb|--------------------------------------------|
Gb|-----9-9-9-9-9-9-----------------9-9--------|
Db|-------------------9-9--7-7-7-7-------9-----|
Ab|--------------------------------------------|
Eb|----9-9-9-9-9-9---9-9----9-9-9----9--9------|


And when I see you
I really see you upside down
But my brain knows better
It picks you up and turns you around
Turns you around
Turns you around

If you feel discouraged
And there's a lack of color here
Please don't worry lover
It's really bursting at the seams
From absorbing everything
The spectrum's A to Z

Ohhh's

This is fact not fiction
For the first time in years
And all the girls in every girlie magazine
Can't make me feel any less alone
I'm reaching for the phone 

Strumming:
[ Tab from: http://www.guitartabs.cc/tabs/d/death_cab_for_cutie/lack_of_color_tab_ver_3.html ]
eb|-----------------------------|
Bb|--0-0--0-0--0--0---0-0--0-0--|
Gb|--8-8--8-8--9--9---8-8--6-6--|
Db|--9-9--9-9--11-11--9-9--7-7--|
Ab|--9-9--9-9--11-11--9-9--7-7--|
Eb|--7-7--8-8--9--9---7-7--5-5--|



To call at 7:03
And on your machine I slur a plea
For you to come home


Bb|-0-0--0-0----|
Gb|-8-8--8-8----|
Db|-9-9--9-9----|
Ab|-9-9--9-9----|
Eb|-7-7--8-8----|


But I know it's to late


eb|-------------|
Bb|-0------0----|
Gb|-9---8--6----|
Db|-11--6--7----|
Ab|-11--7--7----|
Eb|-9------5----|


And I should have given you a reason to stay
Given you a reason to stay

Outro (2x)

eb|-------------------------------| 
Bb|-------------------------------| 
Gb|-------------------------------|
Db|-------------------------------|
Ab|-11-11-11-11-11-11-11/7-7------| 
Eb|0--0--0--0--0--0--0----0-0-----|  


eb|--------------------------------|   
Bb|--------------------------------|
Gb|--------------------------------|   
Db|--------------------------------|
Ab|--7/11-11-11-11-11-11/9-9-------|  
Eb|-0-0--0--0--0--0--0----0-0------|   

                            
eb|--------------------------------------------|
Bb|--------------------------------------------|
Gb|-----9-9-9-9-9-9-----------------9-9--------|
Db|-------------------9-9--7-7-7-7-------9-----|
Ab|--------------------------------------------|
Eb|----9-9-9-9-9-9---9-9----9-9-9----9--9------|

Last time end on:

eb|-------|
Bb|-------|
Gb|-------|
Db|-------|
Ab|----11-|
Eb|---0---|

This is fact not fiction
For the first time in years...
Comments