Death Cab For Cutie - I Will Follow You Into The Dark Chords & Tabs

 

I Will Follow You Into The Dark Chords & Tabs

Death Cab For Cutie Chords & Tabs

Version: 2 Type: Tab

I Will Follow You Into The Dark Tab

Death Cab For Cutie - I Will Follow You Into The Dark
tabbed by neoREgen
Key of F major
usually capoed at the 5th fret

without Capo:
intro:             walkdwn                     walkdwn
|-----5---------6--5---|-5--5-------|-5--5--5-|-5---6-|-5--|
|-----8------8--6--6-8-|-6--6--8--8-|-8--6--5-|-6-8-7-|-6--|
|-----7------5--7--5-5-|-7--5--5--5-|-7--5--5-|-7-5-6-|-7--|
|---7--------5--8--7-5-|-7--7--5--5-|-7--7--7-|-7-5-8-|-7--|
|-5--------7----8--8-7-|-5--8--7--7-|-5--8--7-|-5-7-8-|-5--|
|--------8------6------|-------8--8-|-------5-|---8-6-|----|

verses:
|-5-----5-5---5--8--|
|-6-----8-6---6--5--|
|-5-----5-7---5--5--|
|-7-----5-7---7--5--|
|-8-----7-5---8--7--|
|----------------8--|
[ Tab from: http://www.guitartabs.cc/tabs/d/death_cab_for_cutie/i_will_follow_you_into_the_dark_tab_ver_2.html ]
|-[5--]-5--|
|-[6-8]-6--|
|-[5-5]-7--|
|-[7-5]-7--|
|-[8-7]-5--|
|----------|
in the blackest of rooms...

chorus:
|---|-5--5--5--5---|-5--5--8--8-|-5-5----5---6--|----|
|-8-|-6--6--5--6-8-|-6--6--5--5-|-6-6-8--8-8-6--|-6--|
|-5-|-7--5--5--5-5-|-7--5--5--5-|-7-5-5--7-5-7--|-5--|
|-5-|-7--7--7--7-5-|-7--7--5--5-|-7-7-5--7-5-8--|-7--|
|-7-|-5--8--7--8-7-|-5--8--7--7-|-5-8-7--5-7-8--|-8--|
|---|-------5------|-------8--8-|----------8-6--|----|
     if heaven       illuminate   if there's

In the intro, I offset the notes on the first two chords so you'd get the idea how he's
playing them (not all at once). Didn't want to use a lot of space though. It's nice not
to have to move the tab while trying to learn it.