Death Cab For Cutie - Coney Island Chords & Tabs

 

Coney Island Chords & Tabs

Death Cab For Cutie Chords & Tabs

Version: 1 Type: Tab 0 ratings
1 star 2 stars 3 stars 4 stars 5 stars
comments

Coney Island Tab

 http://www.barsuk.com/web.cgi?dcfc&dcfcnews

                            Coney Island-Death Cab for Cutie

Tuning: Standard

    Intro/Verse

e|---------3--------3----------------------------------------------------
B|------0--------0-----0--------3--------3-------------------------------
G|---0--------0-----------0--0--------0-----0-----0----------------------
D|---------------------------------2-----------2-------------------------
A|-----------------------------------------------------------------------
E|-----------------------------------------------------------------------


     Verse
[ Tab from: http://www.guitartabs.cc/tabs/d/death_cab_for_cutie/coney_island_tab.html ]
e|-----3-------0----------------------------------------------------------
B|-----3-------3----------------------------------------------------------
G|-----0-------0----------------------------------------------------------
D|-----0-------2----------------------------------------------------------
A|-----2-------3----------------------------------------------------------
E|-----3-------0----------------------------------------------------------



      Chorus
  "everything was closed....."
e|-----3------0------0----0----------------------------------------------
B|-----3------3-----------3----------------------------------------------
G|-----0------0-----------0----------------------------------------------
D|-----0------2-----------2----------------------------------------------
A|-----2------2-----------3----------------------------------------------
E|-----3------0-----------0----------------------------------------------
Comments