Death Cab For Cutie - Blacking Out The Friction Chords & Tabs

 

Blacking Out The Friction Chords & Tabs

Death Cab For Cutie Chords & Tabs

Version: 1 Type: Tab 0 ratings
1 star 2 stars 3 stars 4 stars 5 stars
comments

Blacking Out The Friction Tab

-"Blacking out the Friction"
--By Death Cab for Cutie
--Tabbed by Williston Dye

INTRO:
(its easy to finger pick at first then create your own variations)


play over keyboard part (improvise here)
e---------------------|
B-------8--------8----|
G-----9---9--------9--|
D---------------------|
A---7----------7------|
E---------------------|


this is mostly the keyboard part. . .
light distortion sounds good here
--------------------------------------|
----------12----10---8----------------|
---------9-----------9-------10p9-----|
-------10------------10-----------10--|
-----7-------7-------8-----8----------|
--------------------------------------|


VERSE:
[ Tab from: http://www.guitartabs.cc/tabs/d/death_cab_for_cutie/blacking_out_the_friction_tab.html ]
"I don't mind the weather...."
heavy distortion
x--x--x--x--x--x---x---x--x--x--x---x--x--x--x--x--x--x--x--|
x--x--x--x--x--x---x---x--x--x--x---x--x--x--x--x--x--x--x--|
9--9--9--9--9--9---9---9--9--9--9---9--9--9--9--9--9--9--9--|
10-10-10-10-10-10--10--10-10-10-10--10-10-10-10-10-10-10-10-|
7--7--7--7--7--7---7---7--7--7--7---8--8--8--8--8--8--8--8--|
x--x--x--x--x--x---x---x--x--x--x---x--x--x--x--x--x--x--x--|

"the hardest part is yet to.... come..."
(and also "you will cross the country . . . ALONE")

--x~-----x~~------           --x--| ETC.. back to verse
--x~-----x~~------           --x--|
--7~-----4~~------           --9--|
--7~-----5~~------           --10-|
--5~-----x~~------           --7--|
--x~-----3~~------           --x--|

End with variations of the intro.

This song is not difficult once you listen to it to figure out the timing. Play it along with it.

Also listen to the John Byrd EP for some sweet variations especially on the intro/outro. 
can figure them out it's a fun song.


Let me know what you think. This is the first tab I ever made.
-Williston Dye
Comments