Death By Stereo - Holding 60 Dollars On A Burning Bridge Chords & Tabs

 

Holding 60 Dollars On A Burning Bridge Chords & Tabs

Death By Stereo Chords & Tabs

Version: 1 Type: Bass Tab 0 ratings
1 star 2 stars 3 stars 4 stars 5 stars
comments

Holding 60 Dollars On A Burning Bridge Bass Tab

Intro:
G---------------------------------------------------------|
D---------------------------------------------------------|
A--5555-5555-5555----5555----5555-----4-2-5/7-7-7-2-4-4-4-|
E-----------------2~------2~------2~----------------------|
[ Tab from: http://www.guitartabs.cc/tabs/d/death_by_stereo/holding_60_dollars_on_a_burning_bridge_btab.html ]
Verse:
G----------------------------------------------------------|
D----------------------------------------------------------|
A-----555------555------555------555---4-2-5/7-7-7-2-4-4-4-|
E--2~-------2~-------2~-------2~---------------------------|

Chorus 1:
G---------------------|
D---------------------| (X2)
A----4-2-5-4-77-5-4-2-|
E--2------------------|

Chorus 2:
G--------------------------------|
D--------------------------------| (X2)
A------444-222-555-444-777-5-4-2-|
E--222---------------------------|

G----------------|
D----------------|
A--7-7-7-2-4-4-4-|
E----------------|

That are all the parts of the song, listen to the song for the order, it's not that hard.
Comments